Song name
# A B C D E F G H I J K L M N O P Q R S T U V W X Y Z

Current Swell - Coming Home tab

     I looked on this site, and i saw no slide tab for this song, so i made my
own.  this is my first tab, so i hope it helps

                    Current Swell  Coming Home

Tuning six to first: EBEABe (tune up certain notes)
key:E

Intro (slower):
   e|---------------------------------------------------------------------|
   B|---------------------------------------------------------------------|
   A|---------------------------------------------------------------------|
   E|---0---3--0--3--3/5--5\1-0----1/5/10-10----10/12--12----12/15--------|
   B|---0---3--0--3--3/5--5\1--0---1/5/10----10-10/12-----12-12/15--------|
   E|---------------------------------------------------------------------|


  e|---------------------------------------7--5-O-0h3p0-3/5----------------|
  B|-------------------------------------5---------------------------------|
  A|-----------------------------------------------------------------------|
  E|---0--3--0--3--3/5-5/1--0---0--1/5-------------------------------------|
  B|---0--3--0--3--3/5-5/1---0--0--1/5-------------------------------------|
  E|-----------------------------------------------------------------------|

Verse: (I've been waiting for this train...)

  e|-------------------------------------------------------------------------|
  B|---------7-7-7-7---------------------------------------------------------|
  A|---------7-7-7-7---------------------------------------------------------|
  E|---0-0--------------3-3---5-5-------------JUST REPEAT--------------------|
  B|---0-0--------------3-3---5-5--------(see song for timing)---------------|
  E|-------------------------------------------------------------------------|

 Chorus:  (No matter where your coming from,)

  e|------------------------------------|
  B|------------------------------------|
  A|------------------------------------|(again, song for timing)
  E|---0--0-0-0-0-0-0---3--------5------|
  B|---0--0-0-0-0-0-0---3-X7-----5-X14--|
  E|---0--0-0-0-0-0-0---3--------5------|

Thats pretty much it, but theres a bridge and and 2 other riffs

Riff 1 (do after third verse, then go into riff 2):

  e|---------------------------------------------------------------------|
  B|---------------------------------------------------------------------|
  A|---------------------------------------------------------------------|
  E|---0---5-5-5--7--3-3-3---X3------7-7-7--3-3-3---0--------------------|
  B|---0---5-5-5--7--3-3-3-----------7-7-7--3-3-3---0--------------------|
  E|---------------------------------------------------------------------|

Riff 2

  e|----------------------------------------------------------------------|
  B|----------------------------------------------------------------------|
  A|----------------------------------------------------------------------|
  E|--0--X9-5---0-X8-5-0-5---0--X5--5-0-5-0-5---0-X7-----(song for time)--|
  B|--0-----5---0----5-0-5---0------5-0-5-0-5---0-------------------------|
  E|----------------------------------------------------------------------|

Bridge: (hold all notes for a full bar, except the last u hold two)
(So all those places that you don't have seen...)

  e|-------------------------------------------------------------------|
  B|-------------------------------------------------------------------|
  A|-------------------------------------------------------------------|
  E|-0----1/3---3/5---------------------------(Repeat)-----------------|
  B|-0----1/3---3/5----------------------------------------------------|
  E|-------------------------------------------------------------------|

After that just do the chorus three times and riff 1, then finish on the e,B 
string part in the intro.

 Thats it!
enjoy, by Dr.docter1
Tap to rate this tab
# A B C D E F G H I J K L M N O P Q R S T U V W X Y Z