Song name
# A B C D E F G H I J K L M N O P Q R S T U V W X Y Z

Daft Punk - Veridis Quo tab

Artist: Daft Punk
      Title: Veridis Quo
           Album: Discovery


Standard Tuning
- written in 4/4 time
Every note on the "B" string is optional. Actually not recommended to play, 
they're only there if you want to play them on a keyboard instrument.


0:00 - intro

  Dm                                   G
e|---13--12--13--10----13--8--13--7--------------------|(riff 1)
B|-----------------------------------------------------|
G|-----------------------------------------------------|
D|-----------------------------------------------------|
A|-----------------------------------------------------|
E|-----------------------------------------------------|

  Am                                  F
e|---12--10--12--8----12--7--12--5---------------------|(riff 2)
B|-----------------------------------------------------|
G|-----------------------------------------------------|
D|-----------------------------------------------------|
A|-----------------------------------------------------|
E|-----------------------------------------------------|

  Dm                                   G
e|---13--12--13--10----13--8--13--7--------------------|
B|-----------------------------------------------------|
G|-----------------------------------------------------|
D|-----------------------------------------------------|
A|-----------------------------------------------------|
E|-----------------------------------------------------|

  Am                                F
e|---12--10--12--8--12--7--12--5-----------------------| (no pause between riffs)
B|-----------------------------------------------------|
G|-----------------------------------------------------|
D|-----------------------------------------------------|
A|-----------------------------------------------------|
E|-----------------------------------------------------|

  Dm                                     G
e|---17--15--17--13----17--12--17--10------------------|(riff 3)
B|---18--17--18--15----18--13--18--12------------------|
G|-----------------------------------------------------|
D|-----------------------------------------------------|
A|-----------------------------------------------------|
E|-----------------------------------------------------|

  Am                                    F
e|---15--13--15--12----15--10--15--8-------------------|(riff 4)
B|---17--15--17--13----17--12--17--10------------------|
G|-----------------------------------------------------|
D|-----------------------------------------------------|
A|-----------------------------------------------------|
E|-----------------------------------------------------|

  Dm                                   G
e|---13--12--13--10----13--8--13--7--------------------|
B|---15--13--15--12----15--10-15--8--------------------|
G|-----------------------------------------------------|
D|-----------------------------------------------------|
A|-----------------------------------------------------|
E|-----------------------------------------------------|

  Am                                F
e|---12--10--12--8--12--7--12--5-----------------------| (no pause between riffs)
B|---13--12--13--10-13--8--13--7-----------------------|
G|-----------------------------------------------------|
D|-----------------------------------------------------|
A|-----------------------------------------------------|
E|-----------------------------------------------------|

  Dm                                     G
e|---17--15--17--13----17--12--17--10------------------|
B|---18--17--18--15----18--13--18--12------------------|
G|-----------------------------------------------------|
D|-----------------------------------------------------|
A|-----------------------------------------------------|
E|-----------------------------------------------------|

  Am                                     F
e|---15--13--15--12----15--10--15--8-------------------|
B|---17--15--17--13----17--12--17--10------------------|
G|-----------------------------------------------------|
D|-----------------------------------------------------|
A|-----------------------------------------------------|
E|-----------------------------------------------------|

  Dm                                   G
e|---13--12--13--10----13--8--13--7--------------------|
B|---15--13--15--12----15--10-15--8--------------------|
G|-----------------------------------------------------|
D|-----------------------------------------------------|
A|-----------------------------------------------------|
E|-----------------------------------------------------|

  Am                                F
e|---12--10--12--8--12--7--12--5-----------------------| (no pause between riffs)
B|---13--12--13--10-13--8--13--7-----------------------|
G|-----------------------------------------------------|
D|-----------------------------------------------------|
A|-----------------------------------------------------|
E|-----------------------------------------------------|

0:54

The rest of the song fallows the pattern:
Riffs:
1

2

1

2 (no pause)

1

2

1

2 (no pause)

3

4

1

2


      Dm  G   Am  F
e|----5---3---5---1----|
B|----6---3---5---1----|
G|----7---4---5---2----|
D|----7---5---7---3----|
A|----5---5---7---3----|
E|----5---3---5---1----|


tabbed by :Blaine Arihara
Tap to rate this tab
# A B C D E F G H I J K L M N O P Q R S T U V W X Y Z