Song name
# A B C D E F G H I J K L M N O P Q R S T U V W X Y Z

Daft Punk - Get Lucky tab

Daft Punk
Get Lucky

Standard tuning.


These are the chords:

    Bm  D    F#m  E
e:--7---10---9----7
B:--7---10---10---9
G:--7---11---11---9
D:--9---12---x----x
A:--x---x----x----x
E:--x---x----x----x


The strumming is the tricky part.

You basically have to mute every stroke except the 3rd, 6th, 9th, 12th, 15th and 16th:


e:--x--x--7--x--x--7--x--x--7--x--x--7--x--x--7--7
B:--x--x--7--x--x--7--x--x--7--x--x--7--x--x--7--7
G:--x--x--7--x--x--7--x--x--7--x--x--7--x--x--7--7
D:--x--x--9--x--x--9--x--x--9--x--x--9--x--x--9--9
A:--x--x--x--x--x--x--x--x--x--x--x--x--x--x--x--x
E:--x--x--x--x--x--x--x--x--x--x--x--x--x--x--x--x


And just follow the same pattern for the rest of the chords!
Start slow if you're struggling, then try and speed it up. 



Listening to the track should help you get the hang of it:
http://www.youtube.com/watch?v=5NV6Rdv1a3I

Don't forget to support the artists:
http://amzn.to/10Y1o47

Tap to rate this tab
 
# A B C D E F G H I J K L M N O P Q R S T U V W X Y Z