Song name
# A B C D E F G H I J K L M N O P Q R S T U V W X Y Z

Daft Punk - Da Funk tab

Tabbed by Vince L.

I think this would sound best if you had a talk box or something like that... a decent 
would suffice really.

Guitar 1  (Rhythm)

Dm7        Dm7        Dm7        Dm7... see a pattern emerging?

Guitar 2
(Theme)

E|-----------------------------------------------------------|
B|-----------------------------------------------------------|
G|o------------15-------------------------------------------o|
D|o-17~--15-17----------------15----------------------------o|
A|----------------17~---15-17---------------17---------------|
E|-------------------------------18---17-18----15~---17-18---|

(Breakdown) Works best with heavy fuzz and a wah

E|-------------------------------|
B|-------------------------------|
G|o-----------------------------o|
D|o---17~-------------15h17-----o|
A|---------17------18------------|
E|--15--15-----15-----------15~--|

Those two parts should cover you for the whole song.

Cheers!
Tap to rate this tab
# A B C D E F G H I J K L M N O P Q R S T U V W X Y Z