Song name
# A B C D E F G H I J K L M N O P Q R S T U V W X Y Z

Daft Punk - Technologic tab

Verse 
e|-----------------------------------------|
B|-----------------------------------------|
G|-----------------------------------------|
D|----9-9---12\9\7---5-5---7-7-------------|
A|----7-7---10\7\5---3-3---5-5-------------|
E|-----------------------------------------|

Chours
e|-----------------------------------------|
B|-----------------------------------------|
G|-------9---12--14------------------------|
D|----9--7---10--12------------------------|
A|----7------------------------------------|
E|-----------------------------------------|
Tap to rate this tab
 
# A B C D E F G H I J K L M N O P Q R S T U V W X Y Z