Song name
# A B C D E F G H I J K L M N O P Q R S T U V W X Y Z

Dan Auerbach - Goin Home tab

-------------------------------------------------------------------------------
			Goin' Home - Dan Auerbach
-------------------------------------------------------------------------------
Tabbed by:wjaquet
Email:wj94@hotmail.co.uk

The gist.

Tuning: Standard Tuning
Capo 7th


e|2---5----------2-----------------2------------------------------------------|
B|3---3-----3----3----3-----3------3-----3---------1------0------------1------|
G|----2-----2----2----2-----2------2-----0----0----0------0-------0----0------|
D|----0---0---0----0--0---0-----0----0----------------------------------------|
A|----------------------------------------------------------------------------|
E|---------------------------------------3--3---3---3-----3-----3---3---------|

e|---------------------------------2-------3--------------------5----------2-|
B|-----0---------1-------3----3----3-------3---------3----------3----------3-|
G|-----0----0----0-------0----0------------0---------0----------2----------2-|
D|--------------------------------------------------------------0----------0-|
A|---------------------------------------------------------------------------|
E|--3--3--3---3----3-----3--3---3-----3----3-----3---------3-----3-----------|

************************************

| /   slide up
| \   slide down
| h   hammer-on
| p   pull-off
| ~   vibrato
| +   harmonic
| x   Mute note
| b   Bend
| pb  Pre-bend
| br  Bend release
| pbr Pre-bend release
| brb Bend release bend

************************************
Tap to rate this tab
 
# A B C D E F G H I J K L M N O P Q R S T U V W X Y Z