Dan Auerbach - Goin Home tab

Goin Home

Dan Auerbach

Key

 b : Bend 
 r : Release
 / : Slide into
 \ : Slide out of
 h : Hammer on
 p : Pull off
(-): Ghost note
 v : Vibrato
 x : Mute
 T : Fret with thumb
___________________________________________________________________________

Capo the 9th fret. The fret numbers are tabbed relative to the capo. He
plays fingerstyle using just the thumb and index fingers. Based on the Live
on Sirius Radio version, which can be found here:

http://www.youtube.com/watch?v=krgfAb1Fw_o

___________________________________________________________________________



e|------------0---|0h3-------0-----|----------0-----|----------------|
B|----------------|----------------|1-----1h3-------|1---------------|
G|----------------|----------------|----------------|----------3-----|
D|----------------|----2-------2---|----2-------2---|----3-------3---|
A|------------3---|3-------3-------|3-------3-------|----------------|
E|----------------|----------------|----------------|1-------1-------|
                                                     T                   


e|----------------|----------------|----------0-----|1--------3------|
B|----------------|----------1-----|3---------------|----------------|
G|2---------3-----|2---------2-----|2---------------|--------------0-|
D|----3-------3---|----3-------3---|----3-------3---|---3-------3----|
A|----------------|----------------|----------------|----------------|
E|1-------1-------|1-------1-------|1-------1-------|1------1--------|
  T                T                T                T


e|0---------------|--------3-------|0---------------|----------0-----|
B|--------------1-|--------1-------|--------------0-|----------------|
G|----------0---0-|----0-------0---|----------0---0-|----------------|
D|----2-------2-2-|----2-------2---|----0-------0---|----0-------0---|
A|3----(p0)-------|3-------3-------|----------------|----------------|
E|--------3-------|----------------|3-------3-------|3-------3-------|
 


e|----------------|----------0-----|--------------0-|----------0-----|
B|3-------------3-|--------3-----1-|--------------1-|--------3-----1-|
G|2---------2-----|----------------|----------0-----|----0-------0---|
D|----3-------3---|----3-------3---|----2-------2---|----2-------2---|
A|----------------|----------------|3----(p0)-------|3---------------|
E|1-------1-------|1-------1-------|--------3-------|----------------|
  T                T             


e|----------------|----------0-----|
B|--------------1-|----------------|
G|----0-----0-----|----------------|
D|----2-------2---|----2-------2---|
A|3----(p0)-------|3-------3-------|
E|--------3-------|----------------|
                            (etc...)
Tap to rate this tab
 
# A B C D E F G H I J K L M N O P Q R S T U V W X Y Z