Song name
# A B C D E F G H I J K L M N O P Q R S T U V W X Y Z

Dandy Warhols - All The Money Or The Simpl Life Honey tab

Was lookin for the chords and that to this and saw that they either werent right or
really explain the strumming.  Heres what I got, its mainly just the verse...

Capoend on 2nd

Chords: Open chords will work just as good
   A (B)     G (A)     D (E)     Dsus2 (Esus2)    Dsus4 (Esus4)
e--5---------3---------2---------0----------------3-----------|
B--5---------3---------3---------3----------------3-----------|
G--6---------4---------2---------2----------------2-----------|
D--7---------5---------0---------0----------------0-----------|
A--7---------5------------------------------------------------|
E--5---------3------------------------------------------------|


The Intro: Trumpets nd stuff  after it all, guitar does this
 Dsus4      Dsus2   D
e--3---3------0-----2--|
B--3---3------3-----3--|
G--2---2------2-----2--|
D--0---0------0-----0--|
A----------------------|
E----------------------|

Verse:
   A                                   G                 D
   E E E E E E E E   E E E E E E E E   E E E E E E E E   E E E Q E E E
e--5-5-5-5-5-5-5-5-|-5-5-5-5-5-5-5-5-|-3-3-3-3-3-3-3-0-|-2-2-0-2-0-2-0--|
B--5-5-5-5-5-5-5-5-|-5-5-5-5-5-5-5-5-|-3-3-3-3-3-3-3-0-|-3-3-3-3-3-3-3--|
G--6-6-6-6-6-6-6-6-|-6-6-6-6-6-6-6-6-|-4-4-4-4-4-4-4-0-|-2-2-2-2-2-2-2--|
D--7-7-7-7-7-7-7-7-|-7-7-7-7-7-7-7-7-|-5-5-5-5-5-5-5---|-0-0-0-0-0-0-0--|
A--7-7-7-7-7-7-7-7-|-7-7-7-7-7-7-7-7-|-5-5-5-5-5-5-5---|----------------|
E--5-5-5-5-5-5-5-5-|-5-5-5-5-5-5-5-5-|-3-3-3-3-3-3-3---|----------------|

There are a few variations, like with the G they sometimes do 3 quarter notes then the
and they sometimes srum the D a little longer


When the trumpets come in Play straight eights on an A chord then the Intro

Play the verse again, along with the A during trumpets and the intro

Bridge:
  D                              A
  Q  E  Q  E  E  Q  E  E  E  R    Q  E  Q  E  E  Q  E  E  E  R
e-8--8--8--8--8--8--8--8--8-----|-5--5--5--5--5--5--5--5--5--------|
B-8--8--8--8--8--8--8--8--8-----|-5--5--5--5--5--5--5--5--5--------|
G-9--9--9--9--9--9--9--9--9-----|-6--6--6--6--6--6--6--6--6--------|
D-10-10-10-10-10-10-10-10-10----|-7--7--7--7--7--7--7--7--7--------|
A-10-10-10-10-10-10-10-10-10----|-7--7--7--7--7--7--7--7--7--------|
E-8--9--9--9--9--9--9--9--9-----|-5--5--5--5--5--5--5--5--5--------|


Thats all i got for now
Tap to rate this tab
# A B C D E F G H I J K L M N O P Q R S T U V W X Y Z