Song name
# A B C D E F G H I J K L M N O P Q R S T U V W X Y Z

Darkbuster - No Future tab

Help us improve GuitareTab! Take a short survey!
Darkbuster
A Weakness for Spirits
No Future

Intro/Verse:
---------------------------------------|
---------------------------------------|
-----------9-9-11-11-7-7-7-7-7-7-7-7---|
---7-7-7-7-9-9-11-11-7-7-7-7-7-7-7-7---|
---7-7-7-7-7-7-9--9--5-5-5-5-5-5-5-5---| x4  First 2 times palm mute
---5-5-5-5-----------------------------|     Third and Fourth time open

Chorus:
---------------------|
---------------------|
---9-9-9-6-7-7-7-7---|
---9-9-9-6-7-7-7-7---|
---7-7-7-4-5-5-5-5---| x3
---------------------|

End Chorus On:
-------|
-------|
---6---|
---6---|
---4---|
-------|
Related for No Future tab