Song name
# A B C D E F G H I J K L M N O P Q R S T U V W X Y Z

Datsuns - Lucille tab

Help us improve GuitareTab! Take a short survey!
The other one was incorrect, so i tabbed this. Took 3 minutes :)

jellymand@gmail.com

Intro/Verse Riff
  F#                      B C C#
E---------------------------------|
B---------------------------------|
G---------------------------------|
D---4-2-4---4-2-----4-2-4---------|
A---------------4---------2-3-4---|
E-2-------2-------2---------------|

Bridge
  E
E-----0-----0-----0-----------------------------------------|
B-----0-----0-----0-----------------------------------------|
G-----1-----1-----1-----------------------------------------|
D---------------------------4-2-4---4-2-----4-2-4-----------|     X2
A---------------------------------------4--------2-3-4------|
E-0-0---0-0---0-0---0-0-1-2-------2-------2-----------------|

Chorus
  A B F#  D E F#
E-5-7-2---5-9-2------------------------------|
B-5-7-2---7-9-2------------------------------|
G-6-8-3---7-9-3------------------------------|
D-7-9-4---7-9-4------------------------------|
A-7-9-4---5-7-4------------------------------|
E-5-7-2---5-7-2------------------------------|


Thanks :)
Related for Lucille tab