Song name
# A B C D E F G H I J K L M N O P Q R S T U V W X Y Z

Dave Matthews Band - Crazy tab

Tabbed by: Scott Staley
Email: strumntheguitar@yahoo.com

Tuning: Standard EADGBE

| /  slide up
| x  Mute note


Intro/Main riff
E:-------------------|
B:-4-----------------|
G:-1----4----7----6--|
D:-2----1----4----2--|
A:-4----2----5----4--|
E:------4----7----5--|

Lead Into "Roll me back again..." from Verse
E:------------------------|
B:-4----------------------|
G:-1----4----7----6----9--|
D:-2----1----4----7----6--|
A:-4----2----5----7---/7--|
E:------4----7----5-------|

"Roll me back again..."
E:----------------|
B:----------------|
G:-8------6----9--|
D:-4------7----6--|
A:-6------7---/7--|
E:-7---6--5-------|

"...I'm coming back again"
E:----------------------------------------|
B:-4--------------5-----5---------1-1-1---|
G:-1----4----7----7-----6----5----x-x-x---|
D:-2----1----4----6-----6----x----3-2-2---|
A:-4----2----5----x-----4----3----3-3-3---|
E:------4----7----4-----------------------|

"Why should I..."
E:--------------|
B:--------------|
G:--------------|
D:-6----6----6--|
A:-x----4----x--|
E:-4----x----2--|

Lead Into "Roll me back again..." from "Why should I..."
E:---------|
B:---------|
G:-5----9--|
D:-6----6--|
A:-6---/7--|
E:-4-------|
Tap to rate this tab
 
# A B C D E F G H I J K L M N O P Q R S T U V W X Y Z