Song name
# A B C D E F G H I J K L M N O P Q R S T U V W X Y Z

Dave Matthews Band - Joyride tab

Other than the chorus, the lyrics change from night to night

Intro/Verse:

E:--------------------------------|
B:--------------------------------|
G:--------------------------------|
D:-5----5--5---x----5----5--5--5--|
A:-5----3--2---x----5----3--2--3--|
E:-3-----------x----3-------------|


End of Verse:

E:-----------------------------|
B:-----------------------------|
G:--------------------------2--|
D:-5----5--5---x----5----5--3--|
A:-5----3--2---x----5----3--3--|
E:-3-----------x----3-------1--|


Chorus:

"The money's clean 'cause we scrub it good, with
Guns and gasoline we could save the world
Nothing's obscene if we only close our eyes
Boys and girls welcome to this joyride"

E:-------         E:-------|
B:-------         B:-9-----|
G:-9-----         G:-9-----|
D:-9----- x4 Then D:-9h11--| x4
A:-9h11--         A:-0-----|
E:-0-----         E:-------|
   1_3               1_3


Breakdown:

E:------------------|
B:------------------|
G:-0---------0----2-|
D:-2----1----0----3-|
A:-2----x----2----3-|
E:-0----2----3----1-|


Wailing "Yeah...":

E:-0----3----0----0----1----0---------2--         E:----|
B:-1----0----1----0----1----1----3----3--         B:-2--|
G:-0----0----2----0----2----0----3----2--         G:-2--|
D:-2----0----2----2----3----2----3----0-- x2 Then D:-2--|
A:-3----2----0----2----3----3----1-------         A:-0--|
E:------3---------0----1-----------------         E:----|
Tap to rate this tab
# A B C D E F G H I J K L M N O P Q R S T U V W X Y Z