Song name
# A B C D E F G H I J K L M N O P Q R S T U V W X Y Z

Dave Matthews Band - Shake Me Like A Monkey tab

Shake Me Like A Monkey, by Dave Matthews Band
Tab by Hunter Henson

Drop D tuning

Intro (x2):

e---------|---------|--------------------------|
b---------|---------|--------------------------|
g---------|---------|--------------------------|
d-----5~--|-----5~--|---1-----3----------------|
a---------|---------|-----1-----3-------3------|
D--5------|--3------|-1-----3-----5-3-5---5-3--|



Verse (x4 first time, x2 second time, x3 after bridge):

e------------------------|-------------------------|
b------------------------|-------------------------|
g------------------------|-------------------------|
d------------------------|--------------------5-3--|
a------------------------|--------------------3-1--|
D--0-3-3-5-5--0-3-3-5-5--|-0-3-3-5-5--0-3-3-5------|


e------------------------|-------------------------|
b------------------------|-------------------------|
g------------------------|-------------------------|
d------------------------|--------------------3-3--|
a------------------------|--------------------1-1--|
D--0-3-3-5-5--0-3-3-5-5--|-0-3-3-5-5--0-3-3-5------|



Chorus - Same as intro x2, but 3rd time through play: 

e---------|---------|-----------------------|
b---------|---------|-----------------------|
g---------|---------|-----------------------|
d-----5~--|-----5~--|---1-----3-------------|
a---------|---------|-----1-----3-------3---|
D--5------|--3------|-1-----3-----5-3-5---5-|


e---------|---------|--------------------------|
b---------|---------|--------------------------|
g---------|---------|--------------------------|
d-----5---|-----5---|---1-----3----------------|
a-----5---|---------|-----1-----3-------3------|
D--5--5---|--3--3---|-1-----3-----5-3-5---5-3--|



Bridge (x4):

e--0--|--0--|
b--3--|--1--|
g--2--|--0--|
d--0--|--2--|
a--0--|--0--|
D--0--|-----|



Outro:

e-----|-----|--------|---------------|R
b-----|-----|--------|---------------|E
g-----|-----|--------|---------------|P
d--5--|--3--|--1--3--|---------------|E
a--5--|--3--|--1--3--|--------3------|A
D--5--|--3--|--1--3--|--5-3-5---5-3--|T

then verse x2;

End on: 

e----------------------------------------------|
b----------------------------------------------|
g----------------------------------------------|
d----------------------------------------------|
a----------------------------------------------|
D--0-3-3-5-5--0-3-3-5-5--0-3-3-5-5--0-3-3-5-5--|
Tap to rate this tab
 
# A B C D E F G H I J K L M N O P Q R S T U V W X Y Z