Song name
# A B C D E F G H I J K L M N O P Q R S T U V W X Y Z

Dave Matthews Band - You And Me tab

You and Me
Dave Matthews Band
Big Whiskey and the Groogux King
Track #13

(intro/verse)
e------------------------------------------|
B------------------------------------------|
G---2-2-2-2-2/4-2/4-2---2-2-2-2-2/4-2/4-2--|
D---4-0-4-0-4/5-4/5-4---4-0-4-0-4/5-4/5-4--|
A------------------------------------------|
E-3-------------------0-------------------3|
                                              C   C   C   C   Am
e------------------------------------------|-----------------------------|
B------------------------------------------|--1-3-1-3-1-3-1---1-1-1-1-1--|
G--2-2-2-2-2/4-2/4/2---2-2-2-2-2/4-2/4/2---|------------------2-2-2-2-2--|
D--4-0-4-0-4/5-4/5-4---4-0-4-0-4/5-4/5-4---|--2-2-2-2-2-2-2---2-2-2-2-2--|
A-3------------------0-------------------3-|--3-3-3-3-3-3-3--------------|
E------------------------------------------|-----------------------------|


(Chorus)
e-x-----x----x----x---|
B-x-----x----x----x---|
G-11----9----12---11--| {x2} {listen to the song for the strumming patterns}
D-0-----0----0----0---|
A-x-----x----x----x---|
E-10----9----12---10--|

then replay the verse:
e------------------------------------------|
B------------------------------------------|
G---2-2-2-2-2/4-2/4-2---2-2-2-2-2/4-2/4-2--|
D---4-0-4-0-4/5-4/5-4---4-0-4-0-4/5-4/5-4--|
A------------------------------------------|
E-3-------------------0-------------------3|
                                              C   C   C   C   Am
e------------------------------------------|-----------------------------|
B------------------------------------------|--1-3-1-3-1-3-1---1-1-1-1-1--|
G--2-2-2-2-2/4-2/4/2---2-2-2-2-2/4-2/4/2---|------------------2-2-2-2-2--|
D--4-0-4-0-4/5-4/5-4---4-0-4-0-4/5-4/5-4---|--2-2-2-2-2-2-2---2-2-2-2-2--|
A-3------------------0-------------------3-|--3-3-3-3-3-3-3--------------|
E------------------------------------------|-----------------------------|

then the chorus plays again... you can play it the same way but if you really listen 
you'll realize it's a little dropped so lemme tab that part out for you...(its the same 
but the first chord starts on the 8th fret)


(chorus)
e-x----x----x----x----|
B-x----x----x----x----|
G-9----7----6----6----|
D-0----0----0----0----|
A-x----x----x----x----|
E-8----7----6----5----|


(riff)
 F   G   A
e-1---3--------------------------------------|
B-2------------------------------------------|
G-3-------2-2-2-2--2-2-2-2--2-2-2-2-2-2-2-2--| {x4}
D---------2-2-2-2--2-2-2-2--2-2-2-2-2-2-2-2--|
A-----2---3-0-0-3--3-0-0-3--3-0-0-3-3-0-0-3--|
E-----3--------------------------------------|

(chorus)
e-x-----x----x----x---|
B-x-----x----x----x---|
G-11----9----12---11--| {x2}
D-0-----0----0----0---|
A-x-----x----x----x---|
E-10----9----12---10--|

then replay the verse for the final time:
e------------------------------------------|
B------------------------------------------|
G---2-2-2-2-2/4-2/4-2---2-2-2-2-2/4-2/4-2--|
D---4-0-4-0-4/5-4/5-4---4-0-4-0-4/5-4/5-4--|
A------------------------------------------|
E-3-------------------0-------------------3|
                                              C   C   C   C   Am
e------------------------------------------|-----------------------------|
B------------------------------------------|--1-3-1-3-1-3-1---1-1-1-1-1--|
G--2-2-2-2-2/4-2/4/2---2-2-2-2-2/4-2/4/2---|------------------2-2-2-2-2--|
D--4-0-4-0-4/5-4/5-4---4-0-4-0-4/5-4/5-4---|--2-2-2-2-2-2-2---2-2-2-2-2--|
A-3------------------0-------------------3-|--3-3-3-3-3-3-3--------------|
E------------------------------------------|-----------------------------|

(outro)                              F
e------------------------------------1-----------------------------------|
B-----------------------5-5-5-3-3-1--1-----------------------------------|
G-----------------------5-5-5-3-3-1--1-2---------------------------------|
D-----------------------5-5-5-3-3-1--1-3---------------------------------|
A------------------------------------1-3---------------------------------|
E-8-7-5-3--12-10-8h10--8-------------1-----------------------------------|


ENJOY!
Tap to rate this tab
 
# A B C D E F G H I J K L M N O P Q R S T U V W X Y Z