Song name
# A B C D E F G H I J K L M N O P Q R S T U V W X Y Z

David Gilmour - This Heaven tab

                                          Artist - David Gilmour
                                         ************************
                                            Song - This Heaven
                                           ********************
                                           Album - On An Island
                                          **********************
                                           Tabbed By - Ayreon77
                                          **********************


There is 2 tabs on here with the notes for the song. But no solo,
and a few have been requesting the solo, so here it is. 

01:13

[-----------------------|--------|------s------s-|--------------------|
[-----------------------|-brp----|-11-11\13--13\-|--------------------|
[-br------b-----------s-|-8--6-8-|-11-11\13--13\-|------5--8--7-------|
[-8-6-8---8-6-8~--6-8~\-|--------|---------------|----6---------8---6-|
[-----------------------|--------|---------------|-8--------------8---|
[-----------------------|--------|---------------|--------------------|


02:01
[-----|-----6-------------|--------|------------b--b---s-|--------|
[-----|-b-6---9-6-b-6-----|-rbp----|--s---9-11-12-12-9-\-|--------|
[-b---|-8---------8---6---|-8--6-8-|-8\10----------------|-brp----|
[-8-8-|-----------------8-|--------|---------------------|-8--6---|
[-----|-------------------|--------|---------------------|------8-|
[-----|-------------------|--------|---------------------|--------|


02:18
[--------------|----------|---------------|
[--s--6-~~~6~~-|----------|-9-9-6---------|
[-3\7----------|-br--p----|-------8-5-b-5-|
[--------------|-8~~~-6---|-----------8---|
[--------------|--------8-|---------------|
[--------------|----------|---------------|

                                                           
---------------
02:34
SOLO
*****                                                            
[-----3--s-----s-|--------------b---brp---------|----------|
[-b-3---6\8-8--\-|---s---11----13--13--11-------|----------|
[-5--------------|-10\12----12------------12-~~~|--s-----s-|
[----------------|------------------------------|-8\10-8-\-|
[----------------|------------------------------|------8-\-|
[----------------|------------------------------|----------|

                  Whammy    Whammy    Whammy
                   Dive      Dive      Dive         s     p            s
[-15~~~~~~~-15~~~~~-15--15~~~-15--15~~~-15--15~~~-15\-|-18-15--15-15~~~\-|
[-----------------------------------------------------|------------------|
[-----------------------------------------------------|------------------|
[-----------------------------------------------------|------------------|
[-----------------------------------------------------|------------------|
[-----------------------------------------------------|------------------|

02:59
 hold 
   |
[--b-13--rb------------------------------|-------|-----3---------------|
[-13----13-11----------------------------|--s----|-b-3---5-b-----------|
[-------------12-10---s------------------|-3\5-3-|-5-------5-5-3-------|
[-------------------12\10-8--h---8-----8-|-3\5-3-|---------------5-3-5-|
[---------------------------8-10-8-10--8-|-------|---------------------|
[----------------------------------------|-------|---------------------|

03:11
 hold 
   |
[--b--13--rb---------------------------------|
[-13-----13-11-------------------------------|
[--------------12-10-------------------------|
[--------------------12-10-8----8----8-------|
[--------------------------8-10-8-10-8-10-10-|
[--------------------------------------------|


[-----------|-------|-------|-----3--p-------------------------------------|
[-b-r-b-3-6-|-b-3-6-|-b-3-6-|-b-3---6-3---rbp------------------------------|
[-5---------|-5-----|-5-----|-5---------5-5--3----5---3--------------------|
[-----------|-------|-------|------------------5----5---5-3----------------|
[-----------|-------|-------|-------------------------------5-3-------3----|
[-----------|-------|-------|-----------------------------------6-3-6---3-6|

03:23
   s s  s
[-6\8/6-\-|-----6-5--s---------------------------|---------------s------|
[-6\8/6-\-|--s------6\8-6-b----------------------|-88-8-8-8-8-8-8\6-8-8-|
[---------|-3\7-----------5-5-3-2----s---------s-|----------------------|
[---------|-----------------------3-3\5--5\3/5-\-|----------------------|
[---------|--------------------------------------|----------------------|
[---------|--------------------------------------|----------------------|
                    
 Trill                                         03:44
[--h--p-h--p-h--p-h--p-h--p-h--p-h---|--b-r-b-|--br----------------------|
[-8-11-8-11-8-11-8-11-8-11-8-11-8-11-|-13-----|-13-------h---------11----|
[------------------------------------|--------|----12--10-12-12-12----12-|
[------------------------------------|--------|--------------------------|
[------------------------------------|--------|--------------------------|
[------------------------------------|--------|--------------------------|


[--------------|----------|-------------|----------|-----------b----------|
[--------------|-11-------|-------------|-11-------|----------11-11-----s-|
[-12-10-12--12-|----12-12-|-12-10-12-12-|----12-12-|-12-10-12-------12--\-|
[--------------|----------|-------------|----------|----------------------|
[--------------|----------|-------------|----------|----------------------|
[--------------|----------|-------------|----------|----------------------|

04:00
   s s  s    s s  s          PH
[-6\8/6-\-|-6\8/6-\-|-------|-|--------------|---------3--p----3--p--|
[-6\8/6-\-|-6\8/6-\-|--s-s--|-|--------brp---|-----b-3---6-3-b---6-3-|
[---------|---------|-3\5/3-|-|p----3-5--3-5-|-3-5-5---------5-------|
[---------|---------|-3\5/3-|-5-3-5----------|-----------------------|
[---------|---------|-------|----------------|-----------------------|
[---------|---------|-------|----------------|-----------------------|


[--------------------|-------|-------|-------|-------|-----3-|-------|----3|
[-br-----------------|-b-3-6-|-b-3-6-|-b-3-6-|-b-3-6-|-b-3---|-b-3-6-|-b-3-|
[-5-3-5--3-----------|-5-----|-5-----|-5-----|-5-----|-5-----|-5-----|-5---|
[----------5-3--s----|-------|-------|-------|-------|-------|-------|-----|
[--------------5\3-1-|-------|-------|-------|-------|-------|-------|-----|
[--------------------|-------|-------|-------|-------|-------|-------|-----|


[-----------------|--s--6---|
[-6-b-------------|-6\8---8-|
[---5-5-3-------s-|---------|
[---------5-3-5-\-|---------|
[-----------------|---------|
[-----------------|---------|


A Great David Gilmour solo. Great to play along too.

Enjoy.................
Tap to rate this tab
 
# A B C D E F G H I J K L M N O P Q R S T U V W X Y Z