Song name
# A B C D E F G H I J K L M N O P Q R S T U V W X Y Z

Dawn Landes - Drive tab

-------------------------------------------------------------------------------
			     SONG NAME - Band Name
-------------------------------------------------------------------------------
Tabbed by: Amcclave
Email: amcclave@gmail.com

First tab ever, heard the song on house last night.
I have very little musical ability but this sounds right to me... you'll
have to listen to get the timing right.

Tuning: EADGBe

e|--------2------------------------------------------------------------------|
B|--------3----2------3------------------------------------------------------|
G|----0h2------2------0------------------------------------------------------|
D|--0----------2------0------------------------------------------------------|
A|-----------0---0------------0----------------------------------------------|
E|------------------3-----3-3------------------------------------------------|

| /  slide up
| \  slide down
| h  hammer-on
| p  pull-off
| ~  vibrato
| +  harmonic
| x  Mute note
===============================================================================
Tap to rate this tab
 
# A B C D E F G H I J K L M N O P Q R S T U V W X Y Z