Song name
# A B C D E F G H I J K L M N O P Q R S T U V W X Y Z

Dawn Landes - Money In The Bank chords

Highlighted       Show chord diagrams
This is tabbed from watching her play it live. Beautiful song!

Capo 2

Intro: Am, C, G, D (as below)

 Am         C         G          D
|-----------------------------------2---------|
|---1----1----1-----1----3----3-----3------3--|
|---2----2----0-----0----0----0----------2----|
|------2----------2---------------0----0------|
|-0---------3---------------2-----------------|
|----------------------3----------------------|

 Am         C          G          D
|-----------------------------------2---------|
|---1----1----1-----1----3----3-----3---------|
|---2----2----0-----0----0----0---------------|
|------2----------2---------------0----0------|
|-0---------3---------------2-----------------|
|----------------------3----------------------|

Second D is followed by two taps on the guitar

Repeat above twice as intro

Continues throughout song


Am
C            G
Money in the bank
D                    Am   C                  G        D    Am
The night before you die, what are you gonna buy?
C              G              D      Am
Will you buy a house? Plant a garden inside
C                    G        D
The night before you die

Am                C
Everything's right
G               D
I got a rose inside
Am                       C
It's brilliant and bright
G                D
Growing all the time
Am                C
Everything's right
G               D
I got a clear mind
Am              C                G           D
Tomorrow night, I'll be sleeping in the yard
                Am    C   G   D
Sleeping in the yard (x2)


Am
C            G
Money in the bank
D                     Am    C                 G      D    Am
The day that you were born, what's that money for?
C             G           D          Am        C                 G     D
Did you buy a gown at the department store the day that you were born?


Am     C G                D
Oh, Oh I need the sun and moon
Am     C G      D
Oh, Oh I need a bedroom
Am     C G              D
Oh, Oh I need a patient eye
Am         C        G               D
Watching me fall and get up again to try


Am                    C
Til everything's right
G               D
I got a rose inside
Am                       C
It's brilliant and bright
G                D
Growing all the time
Am                C
Everything's right
G               D
I got a clear mind
Am              C                G           D
Tomorrow night, I'll be sleeping in the yard
Tap to rate this tab
 
# A B C D E F G H I J K L M N O P Q R S T U V W X Y Z