Song name
# A B C D E F G H I J K L M N O P Q R S T U V W X Y Z

Dawn Landes - Dig Me A Hole tab

----------------------------------------------------------------------------
			    DIG ME A HOLE - Dawn Landes
----------------------------------------------------------------------------
Tabbed by: Stacey Cresp

Tuning: EADGBe (Standard)

Intro/Verse:

e|-----------------------------------------------------------------------3--|
B|------3----------3-------3----3----3-------3----------3--------3-------3--|
G|------0--0-------0-------0----0----0-------0--0-------0--------0--0-------|
D|--------------------------------------------------------------------------|
A|----3-------2--0----0--2----0------------3-------2--0----0--2-------2-----|
E|------------------------- -------3-----0----------------------------------|

e|--------------------------------------------------------------------------|
B|------3----------3-------3----3----3-------3-------3------3---------------|
G|------0--0-------0-------0----0----0-------0-------0--------0-------------|
D|------------------------------------------------0----0--------------------|
A|----3-------2--0----0--2----0------------3----3---------------------------|
E|------------------------- -------3-----0----------------3------3----------|

Intro x 1

Verse: (x 2)

It's hard to breathe in the city,
it's easier t drink.
Come to my house and we'll sit in the dark,
and try not to think.

About the green fields, the way the land feels,
all we left behind.
Oh how a dream can block out the sun,
and cloud the mind...



Chorus:

e|-------3-3-----3-3----3-3----3-3----3-3----3-3----2-2----2-2--------------|
B|-------3-3-----3-3----3-3----3-3----3-3----3-3----3-3----3-3--------------|
G|-----------0--------------0-------------0-------------0-------------------|
D|--------------------------------------------------------------------------|
A|----3--------------3----------------------------0-------------------------|
E|----------------------------------3---------------------------------------|
(Play above three times)

e|-------3-3-----3-3----3-3----3-3----3-3----3-3----2-2-2h3-----------------|
B|-------3-3-----3-3----3-3----3-3----3-3----3-3----3-3-3-------------------|
G|-----------0--------------0-------------0---------------------------------|
D|--------------------------------------------------------------------------|
A|----3--------------3----------------------------0-------------------------|
E|----------------------------------3---------------------------------------|
(Play above on the fourth time)

Tear me,
from my hometown.
Dig me,
a hole in the ground.
Silently,
I fall so far down.
Tear me,
a hole in the ground, now.



Intro x 1



Chorus x 1



Intro x 1



Verse:
e|-----------------------------------------------------------------------3--|
B|------3----------3-------3----3----3-------3----------3--------3-------3--|
G|------0--0-------0-------0----0----0-------0--0-------0--------0--0-------|
D|--------------------------------------------------------------------------|
A|----3-------2--0----0--2----0------------3-------2--0----0--2-------2-----|
E|------------------------- -------3-----0----------------------------------|

e|---------------------------------------------------------------3----------|
B|------3----------3-------3----3----3-------3-------3------3----3----------|
G|------0--0-------0-------0----0----0-------0-------0--------0--0----------|
D|------------------------------------------------0----0---------0----------|
A|----3-------2--0----0--2----0------------3----3----------------2----------|
E|------------------------- -------3-----0----------------3-------3---------|

It's hard to breathe in the city,
t's easier to drink.
Come to my house and we'll sit in the dark,
and try not to think.




************************************

| /   slide up
| \   slide down
| h   hammer-on
| p   pull-off
| ~   vibrato
| +   harmonic
| x   Mute note
| b   Bend
| pb  Pre-bend
| br  Bend release
| pbr Pre-bend release
| brb Bend release bend

************************************
Tap to rate this tab
 
# A B C D E F G H I J K L M N O P Q R S T U V W X Y Z