Guitaretab - guitar tabs
Song name
# A B C D E F G H I J K L M N O P Q R S T U V W X Y Z

Day Of Fire - Adrianne tab

-------------------------------------------------------------------------
Song: Adrianne
Band: Day of Fire
Tabbed by: Anthony
Email: beyond_the_oasis@yahoo.com

Tuning: Drop D or Normal E, either way works since you won't be using the 6th string.



[ Tab from: http://www.guitaretab.com/d/day-of-fire/136843.html ]
E|-------------------------------------------------------------------------|
A|-55---55---55---55---55---5-------33---33---33---33---33-----------------|
D|----3---------3---------3-----3---------- 3-------- 3-------3------------| 
G|---------5---------5--------5--------5----------5--------5---------------|
B|-------------------------------------------------------------------------|
e|-------------------------------------------------------------------------|


E|-------------------------------------------------------------------------|
A|-11---11---11---11---11---1-------00---00---00---00---00-----------------|
D|----3---------3---------3-----3-----------3---------3-------3------------|
G|---------2---------2--------2--------2---------2---------2---------------|
B|-------------------------------------------------------------------------|
e|-------------------------------------------------------------------------|



(Play each entire phrase twice - listen to the song, you'll know what I mean.)

============================================================================
Related for Adrianne tab
Adrianne chords by Day Of Fire