Song name
# A B C D E F G H I J K L M N O P Q R S T U V W X Y Z

Day Of Fire - Through The Fire tab

Great song.  I'd say this is pretty accurate.


Through The Fire
As performed on "Day of Fire"
Lyrics and music by Josh Brown


Drop C
Low to high: C G C F A d

PM         palm muting
x          muffled strings
b          bend
~          vibrating


Intro  (Guitar arr. for piano, x4, w/ clean tone)
d[-3---3---5-----5---6--6--5--1-----------|
A[----------------------------------------|
F[----------------------------------------|
C[----------------------------------------|
G[----------------------------------------|
C[----------------------------------------|


Main Riff (Guitar 1, w/ distortion)
d[----------------------------------------|
A[----------------------------------------|
F[---------x-x-----------------x-x--------|
C[-5--5----x-x-1--0----5--5----x-x-0--1---|
G[-5--5----x-x-1--0----5--5----x-x-0--1---|
C[-5--5----x-x-1--0----5--5----x-x-0--1---|

d[----------------------------------------|
A[----------------------------------------|
F[---------x-x-----------------x-x--------|
C[-5--5----x-x-1--0----5--5----x-x--0--6--|
G[-5--5----x-x-1--0----5--5----x-x--0--6--|
C[-5--5----x-x-1--0----5--5----x-x--0--6--|

Main Riff (Guitar 2, w/ distortion, x4)
d[-10---11-10---------------]----10--------|
A[----8---------8--8--8-----]--------------|
F[--------------------------]--------------|
C[--------------------------]--------------|
G[--------------------------]--------------|
C[--------------------------]--------------|
                             ^^^^^^^^^^^
                             After 4th measure (let it ring)

Verse (Guitar 1, w/ distortion, x2)
d[--------------------------------------------------|
A[--------------------------------------------------|
F[--------------------------------------------------|
C[--------------------------------------------------|
G[--------------------------------------------------|
C[-5-5-5-5-3-5------1--0----5-5-5-5-3-5------0--1---|
  PM..............................................

d[--------------------------------------------------|
A[--------------------------------------------------|
F[--------------------------------------------------|
C[--------------------------------------------------|
G[----------------------------------------------1---|
C[-5-5-5-5-3-5------1--0----5-5-5-5-3-5------0--1---|
  PM..........................................


Chorus (Guitar 1, x2, w/ distortion)
d[------------------------------------------|
A[------------------------------------------|
F[----------------------------x-x-----------|
C[-5--5--------3--3----1--1---x-x---1--0----|
G[-5--5----x-x-3--3----1--1---x-x---1--0----|
C[-5--5----x-x-3--3----1--1---x-x---1--0----|

d[------------------------------------------|
A[------------------------------------------|
F[----------------------------x-x-----------|
C[-5--5--------3--3----1--1---x-x---1--3----|
G[-5--5----x-x-3--3----1--1---x-x---1--3----|
C[-5--5----x-x-3--3----1--1---x-x---1--3----|

Chorus  (Guitar 2, w/ distortion, x4)
d[-10---10----17-18--18---17--------------|
A[----8-----------------------------------|
F[----------------------------------------|
C[----------------------------------------|
G[----------------------------------------|
C[----------------------------------------|

Main Riff

Verse

Chorus

Play the chorus again, only this time, guitar 2 plays his main riff

Bridge (w/ clean tone, x4, let chords ring))
d[-----------------------------]-----------|
A[-----------------------------]-----------|
F[-----------------------------]-----------|
C[-1--------------5------------]----3------|
G[-1--------------5------------]----3------|
C[-1--------------5------------]----3------|
                                 ^^^^^^^^^
                                 For 4th measure

GUITAR SOLO (Guitar 1, w/ distortion, wah?)
d[----------------------------------------|
A[----------------------------------------|
F[----------------------------------------|
C[-12-12-12-12-14-14-14-15-15-15-15-------|
G[----------------------------------------|
C[----------------------------------------|

d[------------------------------------------------------------|
A[------------------------------------------------------------|
F[-12-12-12-12-14-14-14-12b14-(bend slowly, continue picking)-|
C[------------------------------------------------------------|
G[------------------------------------------------------------|
C[------------------------------------------------------------|

d[--------------------------------------------------|
A[-18~~~--18~~~--18~~~--18~~~---18--15--13--11--13--|
F[--------------------------------------------------|
C[--------------------------------------------------|
G[--------------------------------------------------|
C[--------------------------------------------------|

d[----------------------------------------|
A[----------------------------------------|
F[-17b19----------------------------------|
C[----------------------------------------|
G[----------------------------------------|
C[----------------------------------------|

SOLO RHYTHM SECTION (Guitar 2, w/ distortion, x3)
d[----------------------------]--------------|
A[----------------------------]--------------|
F[----------x-x---------------]--------------|
C[-5--5-----x-x--1-0-----3----]--1------0----|
G[-5--5-----x-x--1-0-----3----]--1------0----|
C[-5--5-----x-x--1-0-----3----]--1------0----|
                                ^^^^^^^^^^^^
                               After 3rd measure

Chorus

Then, as before the Bridge, guitar 1 plays the chorus riff, guitar 2 plays his main riff (lead)

Breakdown (Guitar 1, w/ distortion)
d[--------------------------------------------|
A[--------------------------------------------|
F[----------x-x-------------------x-x---------|
C[-5--5-----x-x--1-0-----5--5-----x-x-0--6----|
G[-5--5-----x-x--1-0-----5--5-----x-x-0--6----|
C[-5--5-----x-x--1-0-----5--5-----x-x-0--6----|

d[----------------------------------------|
A[----------------------------------------|
F[----------x-x---------------------------|
C[-5--5-----x-x--1-0-----5----------------|
G[-5--5-----x-x--1-0-----5----------------|
C[-5--5-----x-x--1-0-----5----------------|

Let the last chord ring

Song structure:
Piano intro
Main Riff
Verse
Chorus
Main Riff
Verse
Chorus
Post-Chorus
Bridge
GUITAR SOLO
Chorus
Post-Chorus
Breakdown

Not bad for my first tab in like.....wow, since like last July.  I'm sure this is almost 
accurate.  Enjoy.  Peace, God bless.
Tap to rate this tab
# A B C D E F G H I J K L M N O P Q R S T U V W X Y Z