Guitaretab - guitar tabs
Song name
# A B C D E F G H I J K L M N O P Q R S T U V W X Y Z

Day Of Fire - Wake Me tab

Day of Fire
Wake Me
Cut And Move / X 2006
 2006 - Essential Records
Tabbed By: Jeremy Waterman
Tuning: Drop D - DADGBE

This here's a wicked song from the new cd, Cut and Move. Actually, it's not out yet, but
ok. It'll be out in about 2 weeks, on June 6th, so everyone should buy it. It's not
hard of a song, you just need to get all the timing and everything right. Oh yeah, if 
want to check out this song before the cd comes out, you might want to pick up a copy of X
because I don't think you'll find it for download.
Praise? Hate mail? Ducky? Send them to me at infectedwithyou@hotmail.com

Legend:
h Hammer On
. Palm Mute
* Distortion

Intro:
E[-------------------------------]
B[-------------------------------]
G[-------------------------------]
D[-3h5--3h5--3h5--3h5--3h5--3--5-]
A[-3h5--3h5--3h5--3h5--3h5--3--5-]
D[-3h5--3h5--3h5--3h5--3h5--3--5-]
ds *****************************

E[--------------------------]
B[--------------------------]
G[--------------------------]
D[-3h5--3h5--3h5--3h5--2--5-]
A[-3h5--3h5--3h5--3h5--2--5-]
D[-3h5--3h5--3h5--3h5--2--5-]
ds ******************

E[--------------------------]
B[--------------------------]
G[--------------------------]
D[-3h5--3h5--3h5--3h5--3--5-]
A[-3h5--3h5--3h5--3h5--3--5-]
D[-3h5--3h5--3h5--3h5--3--5-]

E[--------------------------]
B[--------------------------]
G[--------------------------]
D[-3h5--3h5--3h5--3h5--2--5-]
A[-3h5--3h5--3h5--3h5--2--5-]
D[-3h5--3h5--3h5--3h5--2--5-]

Pre-Verse:
E[--------------------------]
B[--------------------------]
G[--------------------------]
D[-3h5--3h5--3h5--3h5--2--5-]
A[-3h5--3h5--3h5--3h5--2--5-]
D[-3h5--3h5--3h5--3h5--2--5-]

E[--------------------------]
B[--------------------------]
G[--------------------------]
D[-3h5--3h5--3h5--3h5--3--5-]
A[-3h5--3h5--3h5--3h5--3--5-]
D[-3h5--3h5--3h5--3h5--3--5-]

Verse 1:
E[--------------------------]
B[--------------------------]
G[--------------------------]
D[---------------------3--5-]
A[---------------------3--5-]
D[---------------------3--5-]

E[---------------------------------------]
B[---------------------------------------]
G[---------------------------------------]
D[-555555555555555555555555-3h5-3h5-3--5-]
A[-555555555555555555555555-3h5-3h5-3--5-]
D[-555555555555555555555555-3h5-3h5-3--5-]
pm ........................

E[--------------------------]
B[--------------------------]
G[--------------------------]
D[-3h5--3h5--3h5--3h5--3--5-]
A[-3h5--3h5--3h5--3h5--3--5-]
D[-3h5--3h5--3h5--3h5--3--5-]
ds ******************

E[--------------------------]
B[--------------------------]
G[--------------------------]
D[-3h5--3h5--3h5--3h5--3--5-]
A[-3h5--3h5--3h5--3h5--3--5-]
D[-3h5--3h5--3h5--3h5--3--5-]
ds ********

Pre-Chorus:
E[---------------------------]
B[---------------------------]
G[---------------------------]
D[-5-------3-------1-------0-]
A[-5-------3-------1-------0-]
D[-5-------3-------1-------0-]

Chorus:
E[-----------------]
B[-----------------]
G[-----------------]
D[-5-5-55--3-3-3-3-]
A[-5-5-55--3-3-3-3-] (x3)
D[-5-5-55--3-3-3-3-]
[ Tab from: http://www.guitaretab.com/d/day-of-fire/144351.html ]
Post-Chorus:
E[-------------------------------]
B[-------------------------------]
G[-------------------------------]
D[-2h5--3h5--3h5--3h5--3h5--3--5-]
A[-2h5--3h5--3h5--3h5--3h5--3--5-]
D[-2h5--3h5--3h5--3h5--3h5--3--5-]

E[--------------------------]
B[--------------------------]
G[--------------------------]
D[-3h5--3h5--3h5--3h5--3--5-]
A[-3h5--3h5--3h5--3h5--3--5-]
D[-3h5--3h5--3h5--3h5--3--5-]

Verse 2:
E[----------------------------------------------]
B[----------------------------------------------]
G[----------------------------------------------]
D[-5555555555555555-3--5-5555555-3h5--3h5--3--5-]
A[-5555555555555555-3--5-5555555-3h5--3h5--3--5-] (x2)
D[-5555555555555555-3--5-5555555-3h5--3h5--3--5-]
pm ................      .......

E[--------------------------]
B[--------------------------]
G[--------------------------]
D[-3h5--3h5--3h5--3h5--3--5-]
A[-3h5--3h5--3h5--3h5--3--5-] (x2)
D[-3h5--3h5--3h5--3h5--3--5-]

Pre-Chorus:
E[---------------------------]
B[---------------------------]
G[---------------------------]
D[-5-------3-------1-------0-]
A[-5-------3-------1-------0-]
D[-5-------3-------1-------0-]

Chorus:
E[-----------------]
B[-----------------]
G[-----------------]
D[-5-5-55--3-3-3-3-]
A[-5-5-55--3-3-3-3-] (x5)
D[-5-5-55--3-3-3-3-]

Bridge:
E[---------------]
B[---------------]
G[---------------]
D[-555-111-444-0-]
A[-555-111-444-0-] (x4)
D[-555-111-444-0-]

E[-------------------------------]
B[-------------------------------]
G[-------------------------------]
D[-------------------------------]
A[-------------------------------]
D[-3h5--3h5--3h5--3h5--3h5--3--5-]
pm ...  ...  ...  ...  ...  .  .

E[--------------------------]
B[--------------------------]
G[--------------------------]
D[---------------------3--5-]
A[--------------------------]
D[-3h5--3h5--3h5--3h5-------]
pm ...  ...  ...  ...

E[--------------------------]
B[--------------------------]
G[--------------------------]
D[-3h5--3h5--3h5--3h5--3--5-]
A[--------------------------]
D[--------------------------]

E[--------------------]
B[--------------------]
G[--------------------]
D[-3h5--3h5--3h5--3h5-]
A[--------------------]
D[--------------------]

Chorus:
E[-----------------]
B[-----------------]
G[-----------------]
D[-5-5-55--3-3-3-3-]
A[-5-5-55--3-3-3-3-] (x9)
D[-5-5-55--3-3-3-3-]

Outro:
E[-------------------------------]
B[-------------------------------]
G[-------------------------------]
D[-3h5--3h5--3h5--3h5--3h5--2--5-]
A[-3h5--3h5--3h5--3h5--3h5--2--5-]
D[-3h5--3h5--3h5--3h5--3h5--2--5-]
ds ***********************

E[--------------------------]
B[--------------------------]
G[--------------------------]
D[-3h5--3h5--3h5--3h5--3--5-]
A[-3h5--3h5--3h5--3h5--3--5-]
D[-3h5--3h5--3h5--3h5--3--5-]

E[--------------------------]
B[--------------------------]
G[--------------------------]
D[-3h5--3h5--3h5--3h5--2--5-]
A[-3h5--3h5--3h5--3h5--2--5-]
D[-3h5--3h5--3h5--3h5--2--5-]

E[--------------------------]
B[--------------------------]
G[--------------------------]
D[-3h5--3h5--3h5--3h5--2--5-]
A[-3h5--3h5--3h5--3h5--5--5-]
D[-3h5--3h5--3h5--3h5--5--5-]

E[--------------------]
B[--------------------]
G[--------------------]
D[-3h5--3h5--3h5--3h5-]
A[-3h5--3h5--3h5--3h5-] (let ring)
D[-3h5--3h5--3h5--3h5-]
Related for Wake Me tab