Song name
# A B C D E F G H I J K L M N O P Q R S T U V W X Y Z

Dead Meadow - Good Moanin tab

Main Riff:
E-------------------------------------------|
B-------------------------------------------|
G-------------------------------------------|
D----------------5--------------5b~---------|
A-----5h7----5h7---7--------5h7-----7-------|
E--5h7------------------5h7-----------------|

Variation:
E--------------------------------------------|
B--------------------------------------------|
G--------------------------------------------|
D----------------5---------------5b~---------|
A-----5h7----5h7---7--------5h7p5-----7------|
E--5h7------------------5h7------------------|

Riff 2
E -----------------------------------------|
B -----------------------------------------|
G -----------------------------------------|
D ---------x-----------x----------------x--|
A --5h7~---x----5h7~---x--5h7-5h7-5h7~--x--|
E ---------x-----------x----------------x--|

Throw in tons of little A Pentatonic fills in with this ^

At the end his tremelo picking some A root power chords why high up on the neck and
decending downward while using the wah. For the solo just play some smooth riffs in
A minor Pentatonic.
Tap to rate this tab
 
# A B C D E F G H I J K L M N O P Q R S T U V W X Y Z