Guitaretab - guitar tabs
Song name
# A B C D E F G H I J K L M N O P Q R S T U V W X Y Z

Dead Meadow - I Love You Too tab

"I Love You Too"
By: Dead Meadow
Off the album, "Shivering Kings and Others"

Tabbed by: Jason Bloss
Email: valentinezxifax@yahoo.com

Standard Tuning
(EADGBe)


Intro: (0:00-1:20)


e|-------------------------------------------------------------------------|
B|-------------------------------------------------------------------------|
G|-------------------------------------------------------------------------|
D|-------------------------------------------------------------------------|
A|-------------------------------------------------------------------------|
E|-6b-3-6b-3-6-3-6b-3-6b-3-0-3-6-3-6b-3-6b-3-6-3-6b-3-6b-3-6-3-6b-3-6b-3-6-|

e|------------------------------------------------|
B|------------------------------------------------|
G|------------------------------------------------|
D|------------------------------------------------|
A|------------------------------------------------|
E|-3-6b-3-6b-3-0-3-6-3-6b-3-6b-3-6-3-6b-3-6b-3-6-3| x2


At (0:46) with a lot of reverb effect

e|-------------------------------------------------------------------------|
B|------/10\8~~/10/11~~10-11/13~~\8~~10/11\10/11~~\6~~8/10b-8~~------------|
G|-15/---------------------------------------------------------------------|
D|-------------------------------------------------------------------------|
A|-13/---------------------------------------------------------------------|
E|-------------------------------------------------------------------------|


Verse: (1:21-1:37)

e|------------------------------------------------------------|
B|------------------------------------------------------------|
G|------------------------------------------------------------|
D|------------------------------------------------------------|
A|------------------------------------------------------------|
E|-6b-3-6b-3-6-3-6b-3-6b-3-0-3-6-3-6b-3-6b-3-6-3-6b-3-6b-3-6-3|


Chorus: (1:38-2:07)

e|-------------------------------------------------------------------------|
B|-------------------------------------------------------------------------|
G|-------------------------------------------------------------------------|
D|-------------------------------------------------------------------------|
A|-6b-3-0-3-6b-3-6-3-6b-3-0-3-6b-3-6---------------------------------------|
E|-----------------------------------6b-3-6b-3-6b-3-6-3-6b-3-6b-3-6-3------|

[ Tab from: http://www.guitaretab.com/d/dead-meadow/191013.html ]
e|---------------------------------------------|
B|---------------------------------------------|
G|-7-10-7-5------------------------------------|
D|---------------------------------------------|
A|-5--8-5-3-5----------------------------------|
E|------------8-6-3-6b-3-6b-3-6-3-6b-3-6b-3-6-3|


Solo Fill (2:08-2:41) tons of wah, tremelo pick these notes

e|------------------------------------------------------------------------|
B|-8~~~~10-11~~~~~13~~14~~15b~~~\-----------------------------------------|
G|------------------------------------------------------------------------|
D|------------------------------------------------------------------------|
A|------------------------------------------------------------------------|
E|----------------------------------6b-3-6b-3-6-3-6b-3-6b-3-0-3-6-3-6b-3--|


e|-----------------------|
B|-----------------------|
G|-----------------------|
D|-----------------------|
A|-----------------------|
E|-6b-3-6-3-6b-3-6b-3-6-3|

Verse 2: (2:42-2:58)

Same as the first.

Chorus 2: (2:59-3:27)

Also same as the first.

Guitar Solo: (3:28-4:01)

As always with their solos, they are very hard to hear, so I say that maybe improvising 
little bit wouldn't hurt!

Verse after solo: (4:02-4:18)

Again, same as the other two...

Chorus 3: (4:19-4:51) finally, a LITTLE change!

e|------------------------------------------------------------------------|
B|------------------------------------------------------------------------|
G|------------------------------------------------------------------------|
D|------------------------------------------------------------------------|
A|-6b-3-0-3-6b-3-6-3-6b-3-0-3-6b-3-6--------------------------------------|
E|-----------------------------------0-6-3-6b-3-6b-3-6-3-6b-3-6b-3-6-3----|


e|--------------------------------------------------------|
B|--------------------------------------------------------|
G|-7-10-7-7--------------8--------------------------------|
D|--------------------------------------------------------|
A|-5--8-5-5-5-3----------6--------------------------------|
E|--------------6-8~8~8~---6-3-6b-3-6b-3-6-3-6b-3-6b-3-6-3|


Outro: (4:52-end of song)

This is just a long variation of the solo fill earlier in the tab
(starting from the 2:08 times). Again, lots of reverb,
distortion, wah, echo. Really anything you can think
of to make tabbing the solo more difficult. Either way,
thats pretty much it. This is all MY tab, so if theres
any questions email me from my email address at the top. Enjoy!
Related for I Love You Too tab
Advertisement will be closed in 10 seconds