Song name
# A B C D E F G H I J K L M N O P Q R S T U V W X Y Z

Dead Meadow - That Old Temple tab

Hello,
this is the tab for song "That Old Temple" by a great band Dead Meadow.
Also this is my first tab ever so i hope youll like it and hope it will be helpful for you all ...
Here it is:

Intro Chords
E--------------------------------------------------------|
B--------------------------------------------------------|
G--11-11-11-11---9-9-9-9--------------14---11-11-11-11---|
D--11-11-11-11---9-9-9-9---9-9-9-9----14---11-11-11-11---|
A--9--9--9--9----7-7-7-7---9-9-9-9----12---9--9--9--9----|
E--------------------------7-7-7-7-----------------------|

Then that little riff between
E--------------------------------------------------------|
B--------------------------------------------------------|
G--------------------------------------------------------|
D--------------------------------------------------------|
A-------7------------------------------------------------|
E---------5-7-5-7-5-7b-7-5-7-----------------------------|

Then chorus chords (let them ring):
E--4---6---4---4---4-------------4---4-|
B--5---7---4---4---5-------------4---4-|
G--4---6---4---4---4---8-6---6---4---4-|
D--6---8---6---6---6-------8-----6---6-|
A--4---6---6---6---4-------------6---6-|
E----------4---4-----------------4---4-| Hold last chord

Chorus ending
E------8--------2---------8-----------|
B------9--------2---------9-----------|
G--9---8--------3-----9---8-----------|
D--9---10---6---4-----9---10---6------|
A--7---8----6---4-----7---8----6------|
E-----------4---2--------------4------|
After this comes solo ...(crank some big distortion and turn on your wah !)

Enjoy this great song !
Tap to rate this tab
# A B C D E F G H I J K L M N O P Q R S T U V W X Y Z