Song name
# A B C D E F G H I J K L M N O P Q R S T U V W X Y Z

Deafheaven - Unrequited tab

Deafheaven - Unrequited

Intro
e------------------------------------------------|
B-------0---------0-------0---------0------------|
G-----7---------7-----------0---------0----0-----|
D---5---------5---------2---------1------1---1---|
A-7---------6---------3---------2----------------|
E------------------------------------------------|

Tremolo lead section-a second guitar plays this over the intro... (tremolo pick these notes)
e----------------------------------------------------------------------------|
B-12~~~~^bend up~~~~~\10~~-8~~~~~~-10~~~~-7~~~~-8~~-10~~-12~~^bendup~~-10~~~-|
G----------------------------------------------------------------------------|
D----------------------------------------------------------------------------|
A----------------------------------------------------------------------------|
E----------------------------------------------------------------------------|

-----------------------------------------|
---8~~~^bend up~~~~-7~~~~-------8~~~-10~~|
--------------------------9~~~~----------|
-----------------------------------------|
-----------------------------------------|
-----------------------------------------|


e------------------------------------------------------------|
B-12~~~-13~~~-12~~-10~~-8~~~~--12~~~~--10~~~--8~~~~-7~~~~----|
G---------------------------------------------------------9~~|
D------------------------------------------------------------|
A------------------------------------------------------------|
E------------------------------------------------------------|

---------------------------------------------------------|
---8~~-10~~-12~~~--13~~~~-12~~-10~~-8~~~-7~~-------------|
~~--------------------------------------------9~~~~~~----|
---------------------------------------------------------|
---------------------------------------------------------|
---------------------------------------------------------|
Tap to rate this tab
# A B C D E F G H I J K L M N O P Q R S T U V W X Y Z