Song name
# A B C D E F G H I J K L M N O P Q R S T U V W X Y Z

Deafheaven - Dream House tab

This is the ending lead that starts at 7:26

E-------------------------------------|
B----15--------------15---------------|
G--------14--12--11------14--12--11---|
D-------------------------------------|
A-------------------------------------|
D-------------------------------------|


E-------------------------------------|
B----15-------------------------------|
G--------14--12--11--9--11--12--11----|  x3
D-------------------------------------|
A-------------------------------------|
D-------------------------------------|


E-----------------------------------------------------------------|
B--15--------------17--------------19----------------------20-----|
G------14--12--11------14--12--11------14--12--11--9--11------11--|  
D-----------------------------------------------------------------|
A-----------------------------------------------------------------|
D-----------------------------------------------------------------|

E-----------------------------------------------------------------|
B--19---------------------20-----19-------------------------------|
G------14--12--11--9--11------11------14--12--11--9--11--12--11---|  
D-----------------------------------------------------------------|
A-----------------------------------------------------------------|
D-----------------------------------------------------------------|


E----------------------------------------------------------|
B--15--15--14--15--15--15--15--15--15--15--15--15--15--15--|
G--12--11--11--12--14--16--18--19--18--16--14--12--10--11--|  
D----------------------------------------------------------|
A----------------------------------------------------------|
D----------------------------------------------------------|


http://i.imgur.com/DezjKqS.jpg
Tap to rate this tab
# A B C D E F G H I J K L M N O P Q R S T U V W X Y Z