Song name
# A B C D E F G H I J K L M N O P Q R S T U V W X Y Z

Dear Juliet - Never Change tab

Tuning: Standard


Verse:

e|---------------------------------------------------------------------------|
B|--------3---3------------------3----3----3------------3------------3-------|
G|----0----0---0--0----------0----0----0----0---0---0----0--0----0----0--0---|
D|---------------------------------------------------------------------------|
A|------------------------------------------------3---3----3---2---2---2-----|
E|--3---3---3---3----2-2---0----0---0----0----0------------------------------|

"if you hear this wherever you are....just know I need you hear, I need you....

e|---------------------------------------------------------------------------|
B|------1--1--1--------------------------------------------------------------|
G|----0--0--0--0-0-----------------------------------------------------------|
D|---------------------------------------------------------------------------|
A|---0-0--0--0--0------------------------------------------------------------|
E|---------------------------------------------------------------------------|

...near me now"

e|---------------------------------------------------------------------------|
B|--------3---3------------------3----3----3------------3------------3-------|
G|----0----0---0--0----------0----0----0----0---0---0----0--0----0----0--0---|
D|---------------------------------------------------------------------------|
A|------------------------------------------------3---3----3---2---2---2-----|
E|--3---3---3---3----2-2---0----0---0----0----0------------------------------|

"you were brighter than the pale white moon reflecting in your eyes, so I guess it's no 
I can't....

e|---------------------------------------------------------------------------|
B|------1--1--1----------------2--2--2---------------------------------------|
G|----0--0--0--0-0-----------0--0--0--0-0------------------------------------|
D|---------------------------------------------------------------------------|
A|---0-0--0--0--0-----------0-0--0--0--0-------------------------------------|
E|---------------------------------------------------------------------------|

...forget you..........no matter what I do"


Chorus:

e|---------------------------------------------------------------------------|
B|-------3-----------3-----------3---------3---------------------------------|
G|-----0--0-0------0--0-0------0--0-0----0--0-0------------------------------|
D|---------------------------------------------------------------------------|
A|----3-3--3-----------------------------------------------------------------|
E|----------------3-3--3------0-0--0----2-2--2-------------------------------|

"I will always carry you in my heart.....

e|---------------------------------------------------------------------------|
B|-------3-----------3-----------3---------3---------------------------------|
G|-----0--0-0------0--0-0------0--0-0----0--0-0------------------------------|
D|---------------------------------------------------------------------------|
A|----3-3--3-----------------------------------------------------------------|
E|----------------3-3--3------0-0--0----2-2--2-------------------------------|

....you'll always be my shooting star"

e|---------------------------------------------------------------------------|
B|-------3-----------3-----------3---------3---------------------------------|
G|-----0--0-0------0--0-0------0--0-0----0--0-0------------------------------|
D|---------------------------------------------------------------------------|
A|----3-3--3-----------------------------------------------------------------|
E|----------------3-3--3------0-0--0----2-2--2-------------------------------|

"Autumn days will fade away and memories will always stay the same...

e|---------------------------------------------------------------------------|
B|-------3-----------3-----------3-------------------------------------------|
G|-----0--0-0------0--0-0------0--0-0----------------------------------------|
D|---------------------------------------------------------------------------|
A|----3-3--3-----------------------------------------------------------------|
E|----------------3-3--3------0-0--0----2------------------------------------|

....I'm hoping you will never change, don't ever change"

and then you repeat the entire thing for the next verse and chorus!
Tap to rate this tab
# A B C D E F G H I J K L M N O P Q R S T U V W X Y Z