Song name
# A B C D E F G H I J K L M N O P Q R S T U V W X Y Z

Dear Juliet - Summers Song tab

Intro:


   1   2  3   4     1   2    3 4   1    2  3  4      1   2 3 4          
E|------0---------|-------2--0---|--------0--------|------0----|
B|---3------3---3-|---3--------3-|----3-----3----3-|-3---------|
G|-----2------2---|-----2--------|------2-----2----|-2---2-----|
D|-0--------------|--------------|-----------------|-----------|
A|----------------|-4------------|-2---------------|-0-0-------|
E|----------------|--------------|-----------------|-----------|


   1   2  3   4     1   2  3 4   1   2  3   4    1 2 3 4
E|---------------|-------------|--------------|----------|
B|-----3------3--|--------3----|-----3------3-|--3-------|
G|---0------2----|----0-2------|---0------2---|--2-------|
D|---------------|-------------|--------------|----------|
A|---------------|-------------|--------------|----------|
E|-0------2------|--3----------|-0------2-----|--3-------|


   1    2     3 4
E|------0---0------|
B|-3-------3>5--2--|
G|-2---2-----------|
D|-----------------|
A|-0-0-------------|
E|-----------------|




Vers (same as intro):


   1   2  3   4     1   2    3 4   1    2  3  4      1   2 3 4          
E|------0---------|-------2--0---|--------0--------|------0----|
B|---3------3---3-|---3--------3-|----3-----3----3-|-3---------|
G|-----2------2---|-----2--------|------2-----2----|-2---2-----|
D|-0--------------|--------------|-----------------|-----------|
A|----------------|-4------------|-2---------------|-0-0-------|
E|----------------|--------------|-----------------|-----------|

This summer is     coming to a    close            


   1   2  3   4     1   2  3 4   1   2  3   4    1 2 3 4
E|---------------|-------------|--------------|----------|
B|-----3------3--|--------3----|-----3------3-|--3-------|
G|---0------2----|----0-2------|---0------2---|--2-------|
D|---------------|-------------|--------------|----------|
A|---------------|-------------|--------------|----------|
E|-0------2------|--3----------|-0------2-----|--3-------|

And I'm starting to figure out That I cannot live without you


   1    2     3 4
E|------0---0------|
B|-3-------3>5--2--|
G|-2---2-----------|
D|-----------------|
A|-0-0-------------|
E|-----------------|

Oooooohh oooooooh


I hope you're thinking of me
Cause all the stars above me sing your name
I'll never be the same again

So please don't forget to call me
Just to let me know you're doing okay
Miles away from me

This summer was the best I've ever had
I never want to see it end
So let's pretend that we're never going back
Home again
Just say those three words
I know you're thinking
I'm sick of wasting time on these formalities
Please never leave my side

And please don't forget to call me
Just to let me know you're doing okay
Miles away from me

So please tell me darling
Why you're so far away
When I need you beside me tonight 

So please tell me darling
Why you're so far away
When I need you beside me tonight 

And please don't forget to call me
Just to let me know you're doing okay
Miles away from me





It's the same tabs in all of the verses


I haven't figured out the chords in the refrain or in the bridge yet, but I'm working on it ;)




This is my first tab so it may be kinda bad :p

Enjoy! :D

Tap to rate this tab
 
# A B C D E F G H I J K L M N O P Q R S T U V W X Y Z