Song name
# A B C D E F G H I J K L M N O P Q R S T U V W X Y Z

Death By Stereo - Wasted Words tab

It's only a short piece of the acoustic intro for this song, and it's also 
incomplete, but at least it's something:

e|-----0-----0----------0-----0----------------|
B|---4-----4-----4----3-----3-----3------------|
G|-6-----6-----6----5-----5-----5--------------|
D|---------------------------------------------|
A|---------------------------------------------|
E|---------------------------------------------|

Repeat this the whole intro and end with this:

e|--0----------------|
B|--4---...----------|
G|--6----------------|
D|-------------------|
A|-------------------|
E|-------------------|

I hope it could help someone... and please don't be rude, it's my first tab.


Víctor

Tap to rate this tab
# A B C D E F G H I J K L M N O P Q R S T U V W X Y Z