Song name
# A B C D E F G H I J K L M N O P Q R S T U V W X Y Z

Death By Stereo - Forever And A Day tab

Intro: 

Guitar 1: 2x
e|-----------------------------------------------------------------|
B|-----------------------------------------------------------------|
G|---0---0-----0-----2---2-----2-----3---3-----3-----0---0-----0---|
D|-----3-----3---------3-----3---------3-----3---------3-----3-----|
A|-----------------5-------5-----5-6-------6-----6-3-------3-----3-|
E|-3-------3-----3-------------------------------------------------|

Then

Guitar 1: 
e|-----------------------------------------------------------------|
B|-----------------------------------------------------------------|
G|---0---0-----0-----2---2-----2-----3---3-----3-----0---0-----0---|
D|-----3-----3---------3-----3---------3-----3---------3-----3-----|
A|-----------------5-------5-----5-6-------6-----6-3-------3-----3-|
E|-3-------3-----3-------------------------------------------------|

Guitar 2 
e|-----------------------------------------------------------------|
B|---------------------------------------------3-----------6-------|
G|---------3---------------3---------------5-------------------7---|
D|-----3-------3-------3-------3-------3---------------3-----------|
A|-----------------5---------------6---------------3---------------|
E|-3---------------------------------------------------------------|

Guitar 1: 
e|-----------------------------------------------------------------|
B|-----------------------------------------------------------------|
G|---0---0-----0-----2---2-----2-----3---3-----3-------------------|
D|-----3-----3---------3-----3---------3-----3---------------------|
A|-----------------5-------5-----5-6-------6-----6-3---------------|
E|-3-------3-----3-------------------------------------------------|

Guitar 2 
e|-----------------------------------------------------------------|
B|---------------------------------------------3-----------6-------|
G|---------3---------------3---------------5-----------------------|
D|-----3-------3-------3-------3-------3-------------5-3-5---------|
A|-----------------5---------------6---------------3---------------|
E|-3---------------------------------------------------------------|

Not 100% on this but it sounds ok to me.
Tap to rate this tab
# A B C D E F G H I J K L M N O P Q R S T U V W X Y Z