Song name
# A B C D E F G H I J K L M N O P Q R S T U V W X Y Z

Death By Stereo - Dont Piss On My Neck And Tell Me Its Raining tab

sorry intro part 2 is shitly done and that i haven't tabbed the rythem of the chords but 
been busy.

key
 ^ bend up
 * pinch harmonic
 / slide up
 \ slide down

intro part 1
eb:------------------------------------------------------|
Bb:---8--888----7---33----5----7-------------------------|
Gb:------------------------------------------------------|
Db:---9--999----7---44----5----7-------------------------|
Ab:-7--77----55----2--2-33--55---------------------------|
Db:------------------------------------------------------|

Intro part 2
eb:-12----12----12----12----12----12-10----10----10------|
Bb:---12----12----12----12----12-------12----12----12----|
Gb:-----12----12----12----12----12-------12----12----12--|
Db:------------------------------------------------------|
Ab:------------------------------------------------------|
Db:------------------------------------------------------|

eb:-10----10----10-7-0-5-7-7-0-5-7-etc-------------------|
Bb:---12----12-------------------------------------------|
Gb:-----12----12-----------------------------------------|
Db:------------------------------------------------------|
Ab:------------------------------------------------------|
Db:------------------------------------------------------|
Verse
eb:-------------------|
Bb:-------------------|
Gb:---9-7-9--8-7-8-5--| sometimes the last chord is   7
Db:---9-7-9--8-7-8-5--|                               7
Ab:---7-5-7--6-5-6-3--|                               5
Db:-------------------|

chorus
eb:------------0---0--|
Bb:------------0---0--|
Gb:--9---------0---0--|
Db:--9----------------|
Ab:--7-9-8---5---4----|
Db:----9-8---5---4----|

diminished riff 1
eb:------------------------------------|
Bb:------------------------------------|
Gb:------------------------------------|
Db:------------------------------------|
Ab:--2---5/8---5/8----11/14------12*~--|
Db:---3/6---9\6---9/12-----15\12-------|

Verse
Chorus

Bridge part 1
eb:-----------------------------------------|
Bb:--5p0-5/8-8p0-8/12-12p0-8/11-11p0-8/11---|
Gb:-----------------------------%%----------|
Db:-----------------------------------------|
Ab:-----------------------------------------|
Db:-----------------------------------------|
bridge part2
eb:----------------------------------7/10---|
Bb:--5p0-5/8-8p0-8/12-12p0-8/11-11p0--------|
Gb:-----------------------------------------| alternate riff 1 and 2
Db:-----------------------------------------| and on last time pinch
Ab:-----------------------------------------| note with % below it
Db:-----------------------------------------|

Castrate the pig,a testement to free will...

Chorus

diminished riff 2 (ending riff)
eb:-----------------------------------------|
Bb:-----------------------------------------|
Gb:-----------------------------------------|
Db:-----------*-----------------------------|
Ab:-2---5/8---7~~---------------------------|
Db:--3/6---9\6------------------------------|


Theres also a riff that plays sometimes at the end of verse riffs and at the end of some 
of the chorus this is really hard to hear exactly what it is but if you play some like 
with a muffled distortion or at a lowish volume it'll sound the same

eb:-----------------------------------------|
Bb:-----------------------------------------|
Gb:-----------------------------------------|
Db:-----------------------------------------|
Ab:-0-3-5-4--*------------------------------|
Db:-0-3-5-4--7^^----------------------------|

L_A_N_K@hotmail.com

if you want a request expect a little wait the next tab should be forget regret but dont 
when. xx
Tap to rate this tab
 
# A B C D E F G H I J K L M N O P Q R S T U V W X Y Z