Song name
# A B C D E F G H I J K L M N O P Q R S T U V W X Y Z

Decapitated - Silence tab

[I don't think this is the tuning of the rest of the album, but it's what I tabbed it in 
for ease]
[The endings of the first parts of the song may not be 100%, but they sound close]

E|-------------------------------------------------------|
B|-------------------------------------------------------|
G|-------------------------------------------------------|
D|--7-7---7/5---5/7---7/10---10/9---9/10---10/9-------9b-|
A|--------------------------------------------------8----|
D|0-----0-----0-----0------0------0------0------0-9------|

E|-------------------------------------------------------|
B|-------------------------------------------------------|
G|-------------------------------------------------------|
D|--7-7---7/5---5/7---7/10---10/12---12/9-----9-----9----|
A|------------------------------------------8-----8------|
D|0-----0-----0-----0------0-------0------9-----9--------|

E|----------------------------------|
B|--------3---------------3---------|
G|--2-2-----2---2---2-2-----2---2---|
D|----------------------------------|
A|----------------------------------|
D|4-----4-----4---3-----3-----3-----|

E|---------------------------------|
B|--11--10---8---6---6-------------|
G|--10---9---7---5---4-------------|
D|---------------------------------|
A|---------------------------------|
D|-0---0---0---0---0---------------|

Listen to the song for how many times to play each part. Towards the end of the song 
they leave out the last chord once.
Tap to rate this tab
# A B C D E F G H I J K L M N O P Q R S T U V W X Y Z