Song name
# A B C D E F G H I J K L M N O P Q R S T U V W X Y Z

Deep Purple - Ive Got Your Number tab

Hi .
This is my first tab for the song by Deep Purple:
I've Got Your Number.
album: Bananas
Noticed that there aren't any tabs in the internet (yet!) for this really cool
song . so here we go!
Scale: Bm natural (most of the song. in a solo part it goes to Am)



                  now the same one octave up
e-------------------|------------------------|-------------14-----------17-|
B-------------------|------------10-^(12)-12-|-15----17----------17^(19)---|
G-------------------|-7---9-7-11-------------|----16----16-----------------|
D-------------7^(9)9|---9--------------------|-----------------------------|
A---5---7-5-9-------|------------------------|-----------------------------|
E-7---7-------------|------------------------|-----------------------------|


then comes some power chords

D5|E5|A5|D5|A5|B5| .. then again the tabs above.(notice the cyncope)

D5|E5|A5|D5|F#|

Guitar riff..
e--------------------------------------------------------|
B--------------------------------------------------------|
G--------------------------------------------------------|
D--------------------------------------------------------|
A-------5H7-7---------------5H7-7------------------------|
E-0-5H7--------0-3-5/7-0H5H7-------0-3-2-0---------------|

chorous:

B5|G5|E5|D5 E5 A5 D5 |F# |A5|

after couple make a syncope ..D5 E5 A5 D5 A5 B5

hear the song and make the right connections.

this song is however for advanced guitar players.

silent solo part

-----------------------------------------------------------------|
---7-------------------------------------------------------------|
-----9-7-6---6-7-9-7-6-------------------------------------------|
-9---------9-----------9-7-5-4-----------------------------------|
-----------------------------------------------------------------|
-----------------------------------------------------------------|


then

-----------------------------------------|
---11--12---9----------------------------|
---11--12---9----------------------------|
---11--12---9----------------------------|
-----------------------------------------|
-----------------------------------------|

solo part... yesyes.. goes and goes..


well this is 80 precent of the song.
hope u like it. have fun!
Deep Purple rocks also with Steve Morse!

Enjoy and feel free to post some comments .


Tabs by : Shaq.
Tap to rate this tab
# A B C D E F G H I J K L M N O P Q R S T U V W X Y Z