Song name
# A B C D E F G H I J K L M N O P Q R S T U V W X Y Z

Def Leppard - Let It Go tab

intro part 1
|------------------------------------------------------------|
|--------5--------------5---------------5--------------------|
|--------5--------------5---------------5----------5---7-----|
|------------7--------------5---------------7------5---7-----|
|-0-3-0----------0-3-0-----------0-3-0-------------3---5-----|
|------------------------------------------------------------|

intro part 2                                                  3rd time  
|------------------------------------------------------------|---0-----|
|--------5--------------5---------------5--------------------|---2-----|
|--------5--------------5---------------5--------5-4-----7---|---2-----|
|------------7--------------5---------------7--------7-5-----|---2-----|
|-0-3-0----------0-3-0-----------0-3-0-----------------------|---0-----|
|------------------------------------------------------------|---------|

Verse
|-----------------------------------|
|-----------------------------------|
|---2---------5---------12---------7|
|---2---------5---------12---------7|  when you play this twice add a palm 
|---0---------3---------10---------5|  muted A note in between the power
|-----------------------------------|  chords.



Intro part 1
Intro part 2
Verse
Verse with palm muted a note
Intro part 2
Verse with palm muted a note
Intro part 2
Solo 1   (I'll try to have the solo's and the bridge soon)
Bridge
Solo 2
Intro part 2
Verse with palm muted a note
Intro part 2

       (Leave comments please)
Tap to rate this tab
 
# A B C D E F G H I J K L M N O P Q R S T U V W X Y Z