Song name
# A B C D E F G H I J K L M N O P Q R S T U V W X Y Z

Def Leppard - Tonight tab

def leppard
tonight solo
tabbed by saturns_bassman

          heres the solo for tonight a buddy of mine tabbed it out like we did the intro.Enjoy!!

e|-3/5-3/5--3----------------------------------8--10b^--8/10\8--15-15/17--|
b|-----------------------------------5--8-8/10----------------------------|
G|-------------------------------5-7--------------------------------------|
D|---------------------------5-7------------------------------------------|
A|-----------------------5-7----------------------------------------------|
E|------------3/5-3/5--3--------------------------------------------------|
                                                               (next line)
e|-15/17-15--17-19-20-19-17-19/22--22-22b^-22b^\20--22--------------------|
b|--------------------------------------------------------------13-13-13--|
G|-----------------------------------------------------14-14-14-----------|
D|------------------------------------------------------------------------|
A|------------------------------------------------------------------------|
E|------------------------------------------------------------------------|

e|-12-17\12----|
b|-------------|         well thats it so enjoy leave commments if needed!
G|----------14-|
D|-------------|
A|-------------|
E|-------------|
Tap to rate this tab
 
# A B C D E F G H I J K L M N O P Q R S T U V W X Y Z