Song name
# A B C D E F G H I J K L M N O P Q R S T U V W X Y Z

Def Leppard - Go tab

This is 'go' by Def Leppard
If you have any question email me at pizzapanman@gmail.com


Intro

E------------------------------------------------------------------------|
B-11-11-11--11-11-9--11-11-12-12-11--11-11-11--11-11-9--11-11-12-12-11---|
G------------------------------------------------------------------------|
D------------------------------------------------------------------------|
A------------------------------------------------------------------------|
E------------------------------------------------------------------------|

E------------------------------------------------------------------------|
B-11-11-11--11-11-9--11-11-12-12-11--11--9--7--6--4----------------------|
G------------------------------------------------------------------------|
D------------------------------------------------------------------------|
A------------------------------------------------------------------------|
E------------------------------------------------------------------------|

Then the main riff comes in

E------------------------------------------------------------------------|
B------------------------------------------------------------------------|
G------------------------------------------------------------------------|
D------------------------------------------------------------------------|
A--------------------------------------------6---------------------------|
E--6-----6--7--6----6--7--6----6--7--6-4-2-1-----------------------------|

Hope you had fun!
Tap to rate this tab
 
# A B C D E F G H I J K L M N O P Q R S T U V W X Y Z