Guitaretab - guitar tabs
Song name
# A B C D E F G H I J K L M N O P Q R S T U V W X Y Z

Default - Seize The Day tab

Seize The Day-Default
The Fallout

E A D G B E

( ) = harmonic

Intro: w/ fdbk.

e-----------------------------------------------------------------
b-8---------------------------------------------------------------
g-7---------------------------------------------------------------
d-6---------------------------------------------------------------
a-7---------------------------------------------------------------
e-----------------------------------------------------------------

Riff A:

e-----------------------------------------------------------------
b-----------------------------------------------------------------
g-----------------------------------------------------------------
d-----6------------------------------6-------------7------7br~~~~-
a-5-7---7----7-------------------5-7---7----7-5--------5----------
e--------------5----5-5-5-5-7-------------------------------------

Verses: Riff A w/ pm x1
Riff A, then

e-----------------------------------------------------------------
b-----------------------------------------------------------------
g-----------------------------------------------------------------
d-----6------------------------------6-------------7--------------
a-5-7---7----7-------------------5-7---7----7-5--------5--5-(5)-0-
e--------------5----5-5-5-5-7-------------------------------------

Chorus:

x3
e-----------------------------------------------------------------
b-----------------------------------------------------------------
g-7---9-----7-----9----7---9--------------------------------------
d-7---9-----7-----9----7---9--------------------------------------
a-5---7-----5-----7----5---7--------------------------------------
e------------------------------3--5---5---5-3-0--3--5---5---5-3-0-

...iíll keep it close...
[ Tab from: http://www.guitaretab.com/d/default/30719.html ]
e-----------------------------------------------------------------
b-----------------------------------------------------------------
g-7---------------9-----------------------------------------------
d-7---------------9-----------------------------------------------
a-5---------------7-----------------------------------------------
e------------------------------3--5---5---5-3-0--3--5---5---5-3-0-

Interlude:

e-----------------------------------------------------------------
b-----------------------------------------------------------------
g-----------------------------------------------------------------
d-----------/7----5---5--7----------------------------------------
a-/5---4---------------------/5---4-------------------------------
e-------------------------------------/5-----3----3----5----------

w/ octaver

e-----------------------------------------------------------------
b-----------------------------------------------------------------
g-----------------------------------------------------------------
d-----6------------6---------------------6------------6-----------
a-5-7---7----7-5-7---7----7-5-7-7-7--5-7---7----7-5-7---7----7-5-7
e-----------------------------------------------------------------

e-----------------------------------------------------------------
b----------------------------------------------------8------------
g------------------------------------9-----9---------7------------
d-----6------------6-----------------9-----9---------6------------
a-5-7---7----7-5-7---7----7-5-7-7-7--7-----7---------7------------
e-----------------------------------------------------------------

Solo:

e-----------------------------------------------------------------
b-----------------------------------------------------------------
g-------13--------------13--------13-14-14br---------13-----------
d-12-14----14-----12-14----14~~~~--------------12-14----14~~-12-14
a-----------------------------------------------------------------
e-----------------------------------------------------------------

e------------------------------------------------12--12--12--12---
b--------------------------12---12-12----12-12---15b-15b-15b-15b--
g-13--------13-14----14b---14b-----14b------14b-------------------
d----14~~~~-------------------------------------------------------
a-----------------------------------------------------------------
e-----------------------------------------------------------------


thatís all

trevor jones
timmy91199@yahoo.ca
Related for Seize The Day tab