Guitaretab - guitar tabs
Song name
# A B C D E F G H I J K L M N O P Q R S T U V W X Y Z

Default - By Your Side tab

By Your Side-Default
The Fallout

E A D G B E


Intro:

e----------------0------------------------0---------
b----------3--------0---------------3--------0------
g-1----x--------------------1----x------------------
d-2----x----------------2---2----x---------------0--
a-2----x--------------------2----x------------------
e-0----x--------------------0----x------------------

e-------------0-----------------------0-------------
b-------2--------2-----2-----1-----------1-----0----
g----------0--------0-----------0-----------0-------
d----2-----------------------------2----------------
a-0-----------------------0-------------------------
e---------------------------------------------------

e----------------0------------------------0---------
b----------3--------0---------------3--------0------
g-1----x--------------------1----x------------------
d-2----x----------------2---2----x---------------0--
a-2----x--------------------2----x------------------
e-0----x--------------------0----x------------------

e-------------0-----------0-------------------------
b-------2--------2-----2--1-------------------------
g----------0--------0-----0-------------------------
d----2--------------------2-------------------------
a-0-----------------------0-------------------------
e---------------------------------------------------

e----------------0------------------------0---------
b----------3--------0---------------3--------0------
g-1----x--------------------1----x------------------
d-2----x----------------2---2----x---------------0--
a-2----x--------------------2----x------------------
e-0----x--------------------0----x------------------

e-------------0-----------------------0-------------
b-------2--------2-----2-----1-----------1-----0----
g----------0--------0-----------0-----------0-------
d----2-----------------------------2----------------
a-0-----------------------0-------------------------
e---------------------------------------------------

Verses:
[ Tab from: http://www.guitaretab.com/d/default/30721.html ]
e-------------------------0--------0---------0------
b---------------------------2----------1-------1--0-
g-1-------------------0------------------0--------0-
d-2---------------------2------------------2--------
a-2-----------------0-------------------------------
e-0-------------------------------------------------

Chorus:

e-----------------------------------------------------------------
b-----------------------------------------------------------------
g-----------------------------------------------------------------
d------/9----9-9-9--------/9-----9-9---7----7--7-7---7----7--7--7-
a------/7----7-7-7--------/7-----7-7---5----5--5-5---4----4--4--4-
e-0------------------0--------------------------------------------

Solo:

e-----------------------------------------------------------------
b-----------------------------------------------------------------
g-----------------------------------------------------------------
d----------------------------------------------------14~~-14-14-12
a-12~~~~-11~~~-------12~~~-12-12-11~~~-12-11-12-/14---------------
e--------------12-12----------------------------------------------

e-----------------------------------------------------------------
b-----------------------------------------------------------------
g------------------------14-------14----12---------13-14~-13-14-13
d---11----------------------14~~~----------14-14------------------
a------12-10-12~~~-12-12------------------------------------------
e-----------------------------------------------------------------

e---------------------12-------------12-----12--------------------
b----15p12---12----12----15p12----12------12---15p12---12-15p12-12
g-14b-----14----14b------------14b-----14b----------14b-----------
d-----------------------------------------------------------------
a-----------------------------------------------------------------
e-----------------------------------------------------------------


thatís about all

trevor jones
timmy91199@yahoo.ca
Related for By Your Side tab