Song name
# A B C D E F G H I J K L M N O P Q R S T U V W X Y Z

Deftones - Rx Queen tab

Deftones	Rx Queen						
C-G-C-F-A-D

Couplet
|-----------------------------------------|
|-----------------------------------------|
|-----------------------------------------|
|-----------------------------------------|
|----------/2---------------------/2------|
|-0--2--2------3~~-------0--2--2------3~~-|

Refrain
|-----------------------------------------------------------------------|
|-----------------------------------------------------------------------|
|-------4-4-4-4-4-4-4-4-4-4-4-4-4-------7-7-7-7-7-7-7-7-7-7-7-7-7-7-7-7-|
|-0-0-0-2-2-2-2-2-2-2-2-2-2-2-2-2-0-0-0-5-5-5-5-5-5-5-5-5-5-5-5-5-5-5-5-|
|-0-0-0-2-2-2-2-2-2-2-2-2-2-2-2-2-0-0-0-5-5-5-5-5-5-5-5-5-5-5-5-5-5-5-5-|
|-0-0-0-2-2-2-2-2-2-2-2-2-2-2-2-2-0-0-0-5-5-5-5-5-5-5-5-5-5-5-5-5-5-5-5-|
								       \___/
                  					      dernière fois seulement

Passage à deux voix
|---------------------------------|
|---------------------------------|
|-5-5-5-5-5-5-5-5-5-5-5-5-5-5-5-5-| ne pas jouer les deux derniers accords la dernière fois,
|-5-3-3-5-3-3-5-3-3-5-3-5-5-3-5-3-| pour entamer le couplet avant le temps
|-3-3-3-3-3-3-3-3-3-3-3-3-3-3-3-3-|
|-3-3-3-3-3-3-3-3-3-3-3-3-3-3-3-3-|
Tap to rate this tab
# A B C D E F G H I J K L M N O P Q R S T U V W X Y Z