Song name
# A B C D E F G H I J K L M N O P Q R S T U V W X Y Z

Deftones - Back To School tab

Hey whats up y'all this is a really cool song and really easy to play. I figured it out very easily and made sure it was right and it is, you just got to put in in drop d flat (low to high--Db, Ab, Db, Gb, Bb, Eb). The only part I couldn't get was the 2 second intro that uses effects and I dont got any pedals so dont hold it against me, AIGHT? so just be cool, have fun, and rock on!!!!

                             *****GO DEFTONES*****

********************************************************************************

Key
* = effects pedal
> = let ring through barre

Pre-verse (SO RUN!) 8x
Eb-----------14*-14*-14*-14*-|
Bb-----------14*-14*-14*-14*-|
Gb-----------14*-14*-14*-14*-|
Db--7--0>--------------------|
Ab--7--0>--------------------|
Db--7--0>--------------------|

Verse
Eb------------------2*-2*-2*-2*-|
Bb------------------2*-2*-2*-2*-|
Gb------------------------------|
Db------------------------------|
Ab------------------------------|
Db-4---3--7--2>-----------------|

Chorus
Eb-------------------------------------------------------------------------|
Bb-------------------------------------------------------------------------|
Gb-------------------------------------------------------------------------|
Db-7--7-7-7--7-7-7--7-7-7--7-7/9--9-9-9--9-9-9--9-9-9--9-9\5--5-5-5--5-5-5-|
Ab-7--7-7-7--7-7-7--7-7-7--7-7/9--9-9-9--9-9-9--9-9-9--9-9\5--5-5-5--5-5-5-|
Db-7--7-7-7--7-7-7--7-7-7--7-7/9--9-9-9--9-9-9--9-9-9--9-9\5--5-5-5--5-5-5-|

Eb-------------------------------------------|
Bb-------------------------------------------|
Gb-------------------------------------------|
Db-5-5-5--5-5-5\2--2-2-2--2-2-2--2-2-2--2-2/-|
Ab-5-5-5--5-5-5\2--2-2-2--2-2-2--2-2-2--2-2/-|
Db-5-5-5--5-5-5\2--2-2-2--2-2-2--2-2-2--2-2/-|

allll you are 
Eb---------------|
Gb---------------|
Bb---------------|
Db-7----2----5---|
Ab-7----2----5---|
Db-7----2----5---|

Song Sequence
1. pre-verse 8x
2. verse 4x
3. chorus 2x
4. verse 4x
5. chorus 4x
6. pre-verse 4x
7. allll you are 4x
8. chorus 4x
9. pre-verse 4x
************************************************************************************************************************************************************************************************************************************************
AND THERE YOU HAVE IT!!!!!!!!!!!!
simple huh? and fun as hell to play. I highly recommend listening to the song and playing along with it to get the timing real good, and to hear for real what you're doing. PEACE OUT FROM PHOENIX!!!!!!!!!!!!************************************************************************************************************************************************************************************************************************************************
Tap to rate this tab
# A B C D E F G H I J K L M N O P Q R S T U V W X Y Z