Song name
# A B C D E F G H I J K L M N O P Q R S T U V W X Y Z

Deftones - Do You Believe tab

Do You Believe (Cardigans Cover)
By Deftones
From the Diamond Eyes (Deluxe Edition)

Riff A
E |--------------------------------|
B |----------------------------12^-|<------Maybe a Pinch Armonic in other string?
G |--------------------------------|
D |--------------------------------|
A |--------10/12/8--7--10--12------|
E |10--13--10/12/8--7--10--12------|
B |10--13---8/10/6--5---8--10------|
F#|-8--11--------------------------|

Riff B
E |----------------------------|----------------|
B |----------------------------|----------------|
G |----------------------------|----------------|
D |----------------------------|----------------|
A |--------10/12/8--7--10--12--|13------10------|
E |10--13--10/12/8--7--10--12--|13------10------|
B |10--13---8/10/6--5---8--10--|11-------8------|
F#|-8--11----------------------|----------------|


Riff C
E |----------------------------|
B |----------------------------|
G |----------------------------|
D |----------------------------|
A |----------------------------|
E |----------------------------|
B |-----------------10----8----|
F#|8----10----11---------------|


Outro
E |----------|----------|----------|----------|-----------|
B |----------|----------|----------|----------|-----------|
G |----------|----------|----------|----------|-----------|
D |----------|----------|----------|----------|-----------|
A |----------|----------|----------|----------|-----------|
E |----------|----------|----------|----------|-----------|
B |-10-12-13-|-10-12-13-|-10-12-13-|-10-12-13-|-10-12-13^-|
F#|----------|----------|----------|----------|-----------|

Structure:
Riff A - X2
Riff B -  X1

Riff C (hear the song for exact times)

Riff A - X3
Riff B -  X1

Riff C (hear the song for exact times)

Riff A - X3
Outro
Tap to rate this tab
# A B C D E F G H I J K L M N O P Q R S T U V W X Y Z