Song name
# A B C D E F G H I J K L M N O P Q R S T U V W X Y Z

Deftones - Change In The House Of Flies tab

I've looked at the other tabs on this song, and they are all pretty close, but i think
this sounds exactly like the song is played. It's pretty easy to pick up on so just
to the song and follow along with the tab and you should have no problem getting it.

If you have any questions about the deftones, or this tab, you can email me at deftones44330@yahoo.com

Song: Change (In The House Of Flies)
Album: White Pony
Artist: Detones
Tuning: I'm not sure what it's called, but it's like this from high to low
        (Eb Bb Gb Db Ab Ebbb)

Intro/Verse
[-------------------------------------------------------]
[-------------------------------------------------------]
[-9-9-9--9-9-9--9-9-9--9-9-9-9-9-9----------------------]
[-x-x-x--x-x-x--x-x-x--x-x-x-x-x-x----------------------]
[-7-7-7--7-7-7--7-7-7--7-7-7-7-7-7----------------------]
[-0-0-0--0-0-0--0-0-0--0-0-0-0-0-0----------------------]

[-------------------------------------------------------]
[-------------------------------------------------------]
[-------------------------------------------------------]
[-4-4-4-7-7-7-6-6-6-7-7-7-7-6-6-------------------------]
[-4-4-4-4-4-4-4-4-4-4-4-4-4-4-4-7-----------------------]
[-------------------------------------------------------]

1st Chorus
[-------------------------------------------------------]
[-------------------------------------------------------]
[-6-6-6-6-6-6-6-6-6-6-6-6-6-6-6-6-----------------------]
[-6-6-6-6-6-6-6-6-6-6-6-6-6-6-6-6-----------------------]
[-4-4-4-4-4-4-4-4-4-4-4-4-4-4-4-4-----------------------]
[-------------------------------------------------------]

[-------------------------------------------------------]
[-------------------------------------------------------]
[-------------------------------------------------------]
[-9-9-9-9-9-9-9-9-9-9-9-9-9-9-9-9-----------------------]
[-7-7-7-7-7-7-7-7-7-7-7-7-7-7-7-7-----------------------]
[-7-7-7-7-7-7-7-7-7-7-7-7-7-7-7-7-----------------------]

Verse
[-------------------------------------------------------]
[-------------------------------------------------------]
[-9-9-9--9-9-9--9-9-9--9-9-9-9-9-9----------------------]
[-x-x-x--x-x-x--x-x-x--x-x-x-x-x-x----------------------]
[-7-7-7--7-7-7--7-7-7--7-7-7-7-7-7----------------------]
[-0-0-0--0-0-0--0-0-0--0-0-0-0-0-0----------------------]

[-------------------------------------------------------]
[-------------------------------------------------------]
[-------------------------------------------------------]
[-4-4-4-7-7-7-6-6-6-7-7-7-7-6-6-------------------------]
[-4-4-4-4-4-4-4-4-4-4-4-4-4-4-4-7-----------------------]
[-------------------------------------------------------]

Chorus 2
[-------------------------------------------------------]
[-------------------------------------------------------]
[-6-6-6-6-6-6-6-6-6-6-6-6-6-6-6-6-----------------------]
[-6-6-6-6-6-6-6-6-6-6-6-6-6-6-6-6-----------------------]
[-4-4-4-4-4-4-4-4-4-4-4-4-4-4-4-4-----------------------]
[-------------------------------------------------------]

[-------------------------------------------------------]
[-------------------------------------------------------]
[-------------------------------------------------------]
[-9-9-9-9-9-9-9-9-9-9-9-9-9-9-9-9-----------------------]
[-7-7-7-7-7-7-7-7-7-7-7-7-7-7-7-7-----------------------]
[-7-7-7-7-7-7-7-7-7-7-7-7-7-7-7-7-----------------------]

This is the 2nd part of the chorus
[-------------------------------------------------------]
[-------------------------------------------------------]
[-------------------------------------------------------]
[-2-2-2-2-2-2-2-2-2-2-2-2-2-2-2-2-----------------------]
[-2-2-2-2-2-2-2-2-2-2-2-2-2-2-2-2-----------------------]
[-2-2-2-2-2-2-2-2-2-2-2-2-2-2-2-2-----------------------]

[-------------------------------------------------------]
[-------------------------------------------------------]
[-------------------------------------------------------]
[-6-6-6-6-6-6-6-6-6-6-6-6-6-6-6-6-----------------------]
[-4-4-4-4-4-4-4-4-4-4-4-4-4-4-4-4-----------------------]
[-4-4-4-4-4-4-4-4-4-4-4-4-4-4-4-4-----------------------]

Verse Three (Slow Part)
[-------------------------------------------------------]
[-------------------------------------------------------]
[-------------------------------------------------------]
[-4-4-4-7-7-7-6-6-6-------6-6-----4-let-ring------------]
[-------------------7-7-7-----7-7-4-let-ring------------]
[---------------------------------4-let-ring------------]

Chorus
[-------------------------------------------------------]
[-------------------------------------------------------]
[-6-6-6-6-6-6-6-6-6-6-6-6-6-6-6-6-----------------------]
[-6-6-6-6-6-6-6-6-6-6-6-6-6-6-6-6-----------------------]
[-4-4-4-4-4-4-4-4-4-4-4-4-4-4-4-4-----------------------]
[-------------------------------------------------------]

[-------------------------------------------------------]
[-------------------------------------------------------]
[-------------------------------------------------------]
[-9-9-9-9-9-9-9-9-9-9-9-9-9-9-9-9-----------------------]
[-7-7-7-7-7-7-7-7-7-7-7-7-7-7-7-7-----------------------]
[-7-7-7-7-7-7-7-7-7-7-7-7-7-7-7-7-----------------------]

This is the 2nd part of the chorus
[-------------------------------------------------------]
[-------------------------------------------------------]
[-------------------------------------------------------]
[-2-2-2-2-2-2-2-2-2-2-2-2-2-2-2-2-----------------------]
[-2-2-2-2-2-2-2-2-2-2-2-2-2-2-2-2-----------------------]
[-2-2-2-2-2-2-2-2-2-2-2-2-2-2-2-2-----------------------]

[-------------------------------------------------------]
[-------------------------------------------------------]
[-------------------------------------------------------]
[-6-6-6-6-6-6-6-6-6-6-6-6-6-6-6-6-----------------------]
[-4-4-4-4-4-4-4-4-4-4-4-4-4-4-4-4-----------------------]
[-4-4-4-4-4-4-4-4-4-4-4-4-4-4-4-4-----------------------]

Ending
[-------------------------------------------------------]
[-------------------------------------------------------]
[-------------------------------------------------------]
[-6-6-6-6-6-6-6-6-6-6--4-4-7-7-6-6-4-4-7-4-4------------]
[-4-4-4-4-4-4-4-4-4-4--4-4-4-4-4-4-4-4-4-4-7------------]
[-4-4-4-4-4-4-4-4-4-4-----------------------------------]
Tap to rate this tab
 
# A B C D E F G H I J K L M N O P Q R S T U V W X Y Z