Guitaretab - guitar tabs
Song name
# A B C D E F G H I J K L M N O P Q R S T U V W X Y Z

Deftones - Around The Fur tab

Deftones	Around the Fur
Db-Ab-Db-Gb-Bb-eb

Couplet
|--------------------------------------------------------------------------------------------------|
|--------------------------------------------------------------------------------------------------|
|--------------------------------------------------------------------------------------------------|
|-------------------------------------7------------------------------------------------------------|
|-5-5-5-5-----5-5-5-3-3-3-3-5-5-5---6---6\5---5-5-5-3-3-3-3-5-5-5--5-5-5-5-----5-5-5-3-3-3-3-5-5-5-|
|-0-0-0-0-----0-0-0-0-0-0-0-6-6-6-------------0-0-0-0-0-0-0-6-6-6--0-0-0-0-----0-0-0-0-0-0-0-6-6-6-|
  .......     ...................             ...................  .......     ...................
    \_____________________________/                                  \_____________________________/
		  4x									 3x

Mur distorstion
|-----------------|
|-0-0-0-0-0-0-0-0-|
|-0-0-0-0-0-0-0-0-|
|-0-0-0-0-0-0-0-0-|
|-0-0-0-0-0-0-0-0-|
|-0-0-0-0-0-0-0-0-|

Refrain
|-----------------------------------------------------------------|
|-----------------------------------------------------------------|
|-------------------------------------------------6-6-6-6-6-6-6-6-| 3x
|-0~~~~~~-0~~~~-0-3-3-3-3-3-3-3-3-4-4-4-4-4-4-4-4-6-6-6-6-6-6-6-6-|
|-0~~~~~~-0~~~~-0-3-3-3-3-3-3-3-3-4-4-4-4-4-4-4-4-4-4-4-4-4-4-4-4-|
|-0~~~~~~-0~~~~-0-3-3-3-3-3-3-3-3-4-4-4-4-4-4-4-4-----------------|
[ Tab from: http://www.guitaretab.com/d/deftones/4959.html ]
|--------------------------------------------------------------------------|
|-----------------------------------------------------------------2~~~~~~~-|
|-----------------------------------------------------------------2~~~~~~~-|
|-0~~~~~~-0~~~~-0-3-3-3-3-3-3-3-3-2-2-2-2-2-2-2-2-2-2-2-2-2-2-2-2-0~~~~~~~-|
|-0~~~~~~-0~~~~-0-3-3-3-3-3-3-3-3-2-2-2-2-2-2-2-2-2-2-2-2-2-2-2-2-0~~~~~~~-|
|-0~~~~~~-0~~~~-0-3-3-3-3-3-3-3-3-2-2-2-2-2-2-2-2-2-2-2-2-2-2-2-2-0~~~~~~~-|
									\______/
      								   au premier refrain

Pont
|-------------------------------------------------------------------------------|
|-------------------------------------------------------------------------------|
|-------------------------------------------------------------------------------|
|-0~~~~~~~~~~~~---------0~~~~-/4------------------0~~~~~~~~-/4------------------|
|-0~~~~~~~~~~~~---------0~~~~----6~-4-5~~---------0~~~~~~~~----6~-4-5~~---------|
|-0~~~~~~~~~~~~-6~~~~b~-0~~~~-------------6~~~~b~-0~~~~~~~~-------------6~~~~b~-|
 \____________/
    fade in

Final
|---------------------------------|
|---------------------------------|
|-------------------5-5-5-5-------|
|-0-0-0-0-0-0-0-0-0-5-5-5-5-6-66-|
|-0-0-0-0-0-0-0-0-0-3-3-3-3-6-6-6-|
|-0-0-0-0-0-0-0-0-0---------6-6-6-|
  .................

Outro
|---------------------------------|
|---------------------------------|
|---------------------------------|
|-p0~~~~~~~~~~-/4-----------------|
|-p0~~~~~~~~~~~~~-6~-4-5~~--------|
|-p0~~~~~~~~~~~~~~~~~~~~~~-6~~~~~-|
Related for Around The Fur tab