Song name
# A B C D E F G H I J K L M N O P Q R S T U V W X Y Z

Depeche Mode - Heaven tab

Based on: http://www.youtube.com/watch?v=e469hPZabIs (Live Studio Session)

Intro/first verse:
e|------------------------|------------------------|
B|------------------------|------------------------|
G|------------------------|------------------------|
D|------------------------|------------------------|
A|------------------------|--7-6-------------------|
E|-6-------4------4/6-----|-----------6\1----------|
Right before first chorus:
e|------------------------|------------------------|
B|------------------------|------------------------|
G|------------------------|------------------------|
D|------------------------|------------------------|
A|------------------------|-----7------6-----------|
E|-6-------4------4/6-----|------------------------|

Chorus:
|------------------------|--------------------------|
|------------------------|--------------------------|
|------------------------|--------------------------|
|------------------------|-------------------3------|
|-6-----------4-4--------|---------4---4--6---------|
|-------------------6----|---4--6-------------------|
Part between chorus and verse or outro:
Just strum D on 2nd fret, listen to Live Studio Session (link on top) to find the right pattern.

Second verse (not sure about those chords, but I think it's quite accurate)
|-6----|-8----|-6----|--------|
|-6----|-6----|-6----|-/9-7~--|
|-6----|-6----|-6----|--------|
|-8----|-6----|-8----|--------|
|------|------|------|--------|
|------|------|------|--------|

Outro:
e|------------------------|------------------------|
B|------------------------|------------------------|
G|------------------------|------------------------|
D|------------------------|------------------------|
A|------------------------|--7-6-------------------|
E|-6-------4------4/6-----|-----------6\1----------|

************************************

| /   slide up
| \   slide down
| ~   vibrato

************************************
Tap to rate this tab
# A B C D E F G H I J K L M N O P Q R S T U V W X Y Z