Song name
# A B C D E F G H I J K L M N O P Q R S T U V W X Y Z

Derek Trucks Band - So What tab

Tuning low to high: E, B, E, G#, B, E

Notes:
This is basically the main part of the song

E -----------------------------|-------------------------------|
B -----------------------------|-------------------------------|
G#----------------------9/11\9-|------------------------9/11\9-|
E -10----7/8-10-12-8-10--------|-10----7/8-10-12-8-10----------|
B ----10-----------------------|----10----------------10-------|
E -----------------------------|-------------------------------|

E -----------------------------|--------------------------------|
B -----------------------------|--------------------------------|
G#----------------------9/11\9-|--------------------------------|
E -10----7/8-10-12-8-10--------|-10/12-10/12-10/12-10~~~--------|
B ----10-----------------------|--------------------------------|
E -----------------------------|--------------------------------|

Key change

E -------------------------------|---------------------------------|
B -------------------------------|---------------------------------|
G#----------------------10/12\10-|------------------------10/12\10-|
E -11----8/9-11-13-9-11----------|-11----8/9-11-13-9-11------------|
B ----11-------------------------|----11---------------11----------|
E -------------------------------|---------------------------------|

E -------------------------------|-------------------------------|
B -------------------------------|-------------------------------|
G#----------------------10/12\10-|-------------------------------|
E -11----8/9-11-13-9-11----------|-11/13-11/13-11/13-11~~~~------|
B ----11-------------------------|-------------------------------|
E -------------------------------|-------------------------------|

Tap to rate this tab
# A B C D E F G H I J K L M N O P Q R S T U V W X Y Z