Song name
# A B C D E F G H I J K L M N O P Q R S T U V W X Y Z

Desert Sessions - Polly Wants A Crack Rock tab

-------------------------------------------------------------------------------
POLLY WANTS A CRACK ROCK - Desert Sessions
-------------------------------------------------------------------------------
Tabbed by:  Brad
Email:      evileskimo1024@aol.com

Tuning: C Tuning  (C F A# D# G C)

Another great song from the desert sessions and an easy one to play as well. All
of the vibratos are soft if they are played at all. If you have any corrections
or comments then drop me an email. Best genre of rock: Desert Rock.

RATE THIS TAB!!!



Intro:

C ||------------------------------------------||
G ||-o--------------------------------------o-||
D#||------------------------------------------||
A#||----8-8-8-8-8-8-8-8-8-8-8-8-8-8-8-8-7-----||
F ||-o--6-6-6-6-6-6-6-6-6-6-6-6-6-6-6-6-5---o-||
C ||------------------------------------------||

C ||--------------------------------------------------||
G ||-o----------------------------------------------o-||
D#||--------------------------------------------------||
A#||----8-8-8-8-8-8-8-8b8.5-8b8.5-8-8-8-8-8-8-8-7-----||
F ||-o--6-6-6-6-6-6-6-6-----6-----6-6-6-6-6-6-6-5---o-||
C ||--------------------------------------------------||


Verse:

C |-------------------------------------|-------------------------------------|
G |-------------------------------------|-------------------------------------|
D#|------------7~-----------------------|------------7~-----------------------|
A#|------8-6-8-----8---6----------------|------8-6-8-----8---6----------------|
F |---6------------------9-6-9-9-9-(9)--|---6------------------9-6-9-9-9-(9)--|
C |-------------------------------------|-------------------------------------|

C |-------------------------------------|-------------------------------------|
G |------------8~-----------------------|-------------------------------------|
D#|------8-6-8-----8---6----------------|------------7~-----------------------|
A#|---6------------------9-6-9-9-9-(9)--|------8-6-8-----8---6----------------|
F |-------------------------------------|---6------------------9-6-9-9-9-(9)--|
C |-------------------------------------|-------------------------------------|


Chorus:	    Repeat 4x        	         ||
	    Stop	here on fourth repetition ||
				         \/
C ||-----------------------------------------|-------------------------------------||
G ||-o---------------------------------------|-----------------------------------o-||
D#||-----------------------------------------|-----------7~------------------------||
A#||----11-11-11-11-11-11-11-11-10-10-9--8---|-----8-6-8-----8---6-----------------||
F ||-o--9--9--9--9--9--9--9--9--8--8--7--6---|--6------------------9-6-9-9-9-(9)-o-||
C ||-----------------------------------------|-------------------------------------||


Bridge 1:    Repeat 4x

C |----------------------------------------|
G |----------------------------------------|
D#|----------------------------------------|
A#|----8-8-8-8-8-8-8-8-8-8-8-8-8-8-8-8-7---|
F |----6-6-6-6-6-6-6-6-6-6-6-6-6-6-6-6-5---|
C |----------------------------------------|


Bridge 2:    Repeat 2x

C |---------------------------------------|---------------------------------------|
G |---------------------------------------|---------------------------------------|
D#|---------------------------------------|---------------------------------------|
A#|---8-8-8-8-8-8-8-8-8-8-8-8-8-8-8-8-7---|---8-8-8-8-8-8-8-8-8-8-8-8-8-8-8-8-7---|
F |---6-6-6-6-6-6-6-6-6-6-6-6-6-6-6-6-5---|---6-6-6-6-6-6-6-6-6-6-6-6-6-6-6-6-5---|
C |---------------------------------------|---------------------------------------|

C |-----------------------------------------------|
G |-----------------------------------------------|
D#|-----------------------------------------------|
A#|---8-8-8-8-8-8-8-8b8.5-8b8.5-8-8-8-8-8-8-8-7---|
F |---6-6-6-6-6-6-6-6-----6-----6-6-6-6-6-6-6-5---|
C |-----------------------------------------------|

C |-----------------------------------------------|
G |-----------------------------------------------|
D#|-----------------------------------------------|
A#|---8-8-8-8-8-8-8-8b8.5-8b8.5-8-8-8-8-8-8-8-7---|
F |---6-6-6-6-6-6-6-6-----6-----6-6-6-6-6-6-6-5---|
C |-----------------------------------------------|


Outro:

C ||------------------------------------------||--------------------------------|
G ||-o--------------------------------------o-||--------------------------------|
D#||------------------------------------------||--------------------------------|
A#||----11-11-11-11-11-11-11-11-10-10-9--8----||---8----------------------------|
F ||-o--9--9--9--9--9--9--9--9--8--8--7--6--o-||---6----------------------------|
C ||------------------------------------------||--------------------------------|


The actual lyrics:

All dressed up
Nowhere to hold
Can’t stop livin’
On the go

Polly wants a crack rock
Polly’s on the wrong block
Polly wants a crack rock
Polly wants a crack

All f***** up
Hanging around
Hold that hit
Should go down

Polly’s on the wrong block
Polly wants a crack rock
Polly’s on the wrong block
Polly wants a crack rock

1 2 3 4

Gotta hit it		\
Got got to hit it hit it	/ 8x

Polly’s on the wrong block
Polly wants a crack rock
Polly’s on the wrong block
Polly wants a crack rock
Want a crack rock
Want a crack rock

===============================================================================
Tap to rate this tab
# A B C D E F G H I J K L M N O P Q R S T U V W X Y Z