Song name
# A B C D E F G H I J K L M N O P Q R S T U V W X Y Z

Desert Sessions - I Wanna Make It Wit Chu tab

Ok, great song recently done on Era Vulgaris, but the original with P.J Harvey is still 
one to play.

Legend:
~ Vibrato
/ Slide Up
\ Slide Down
^ Bend up one step
^^ Bend up two steps


Backing Tune:
(Guitar 1)
4/4                   4/4             4/4              4/4

|    C               | A   A7    |   E E E E E E E E | E E E E E E E E   |


Main Riff:
(Guitar 2)

E|-------------------|-----------|---------------------------------------|
A|-5/7-7-------7---7-|-----------|-X-X-X-7-7*-X-X-X-7-7-X-X-X-7-7-X-X-X-7|
D|-------5h7p5---5---|-7----7----|-X-X-X-9-9*-X-X-X-9-9-X-X-X-9-9-X-X-X-9|
G|-------------------|-6----6----|-X-X-X-9-9*-X-X-X-9-9-X-X-X-9-9-X-X-X-9|
B|-------------------|-5----8----|---------------------------------------|
e|-------------------|(5)--(5)---|---------------------------------------|


*I prefer to just Palm Mute in the verse and then play the actual Power Chords in the 
but thats just my personal preference.

Solo:
(Guitar 2)

E|-----------------------------------|-------------------|-----------------|
A|-----------------------------------|-------------------|-----------------|
D|-----------------------------14----|-------14----------|---------------14|
G|12^-12^-12^-12^-12-12^-12-14^----12|-12-14----12-----14|-12-14^--12-12^--|
B|-----------------------------------|--------------14^--|-----------------|
e|-----------------------------------|-------------------|-----------------|

E|-------------------------------------------|----------------|
A|-----------------------------7---7--5------|-------------7--|
D|-----------------5--7-7^-7-----5------5-7~-|-5-7-7^--5-7----|
G|-7-9^^----7-7^-7---------------------------|----------------|
B|-------------------------------------------|----------------|
e|-------------------------------------------|----------------|

E|---------|-------------------------------|-------------------|
A|---------|-------------------------------|-------------------|
D|---------|------------------------14-----|---14~---14~---14~-|
G|-14^^~~~-|-12^-12-12^^-12^-12-12^----12~-|-14----14----14----|
B|-----15~-|-------------------------------|-------------------|
e|-----15~-|-------------------------------|-------------------|


Then Play The Main Riff and The Backing Tune Two Times Through And Finish With This:

Backing Tune:
(Guitar 1)

4/4

|    C               | A (Let Ring)

Main Riff:
(Guitar 2)

E|-------------------|-----|
A|-5/7-7-------7---7-|-----|
D|-------5h7p5---5---|--7--|
G|-------------------|--6--|
B|-------------------|--5--|
e|-------------------|-(5)-|

Thats it guys, timing is anything but accurate, sorry!
Tap to rate this tab
# A B C D E F G H I J K L M N O P Q R S T U V W X Y Z