Song name
# A B C D E F G H I J K L M N O P Q R S T U V W X Y Z

Devendra Banhart - Now That I Know tab

This song is moderately easy fingerstyle.  I remembered learning this song a while ago 
checked the tab to refresh my memory and it was so off that I had to add this.

There are slight variances that he plays while going through the song, like hammering 
notes here and there and changing up the fingering pattern a little bit, but these two are 
much the main thing he does.


Capo 3


Pattern 1:

|-------0---------0---0--------0-------|------0---------0---0--------0----------|
|-------------2------------2--------2--|----------------------------------------|
|-------2-------2-------2--------2-----|------------3------------3--------3-----|
|---2-------2-------2--------2---------|------4-------4-------4--------4--------|
|--------------------------------------|--0-------0-------0--------0------------|
|--------------------------------------|----------------------------------------|


|-----------------0------------0-------|----------------0------------0----------|
|-------3-------------3----------------|------2-------------2-------------------|
|-------------0------------0-------0---|------------2------------2--------2-----|
|-------4-------4-------4--------4-----|------2-------2-------2--------2--------|
|---0-------0-------0--------0---------|--0-------0-------0--------0------------|
|--------------------------------------|----------------------------------------|

Pattern 2:

|-------0---------0---0--------0-------|------0---------0---0--------0----------|
|-------------2------------2--------2--|----------------------------------------|
|-------2-------2-------2--------2-----|------------3------------3--------3-----|
|---2-------2-------2--------2---------|------4-------4-------4--------4--------|
|--------------------------------------|--0-------0-------0--------0------------|
|--------------------------------------|----------------------------------------|


|-----------------0--------------------|--------0----------------0--------------|
|-------3----------------------3---0---|--0h2-------2-----0h2--------2----------|
|-------------0-------0----0-----------|----------------2-----------------2-----|
|-------4-------4-------4--------4-----|------2-------2-------2--------2--------|
|---0-------0-------0--------0---------|--0-------0-------0--------0------------|
|--------------------------------------|----------------------------------------|

Transcription by Ryan Taycher
Tap to rate this tab
# A B C D E F G H I J K L M N O P Q R S T U V W X Y Z