Guitaretab - guitar tabs
Song name
# A B C D E F G H I J K L M N O P Q R S T U V W X Y Z

Devendra Banhart - Hey Mama Wolf tab

-------------------------------------------------------------------------------
			     HEY MAMA WOLF Ė Devendra Banhart
-------------------------------------------------------------------------------
Tabbed by: Dan Wolgemuth
Email: danwolgemuth@gmail.com

Tuning: standard

I havenít seen a good version of this, so I sat down and tabbed it.  These are the right 
just listen to the song to get the feel for it.  It is a fun little riff.
[ Tab from: http://www.guitaretab.com/d/devendra-banhart/96717.html ]
e|------------0--------------------------------------------------------------|
B|-------1----------1-----1--------------------------------------------------|
G|---------0-----2-----0-----------------------------------------------------|
D|--0-2----------------------------------------------------------------------|
A|---------------------------------------------------------------------------|
E|---------------------------------------------------------------------------|

e|-----------2---------------------------------------------------------------|
B|-----3-----------3-----3---------------------------------------------------|
G|--------2-----------2------------------------------------------------------|
D|--4-----------4------------------------------------------------------------|
A|---------------------------------------------------------------------------|
E|---------------------------------------------------------------------------|
Related for Hey Mama Wolf tab