Song name
# A B C D E F G H I J K L M N O P Q R S T U V W X Y Z

Dexys Midnight Runners - Because Of You tab

Dexy's Midnight Runners - Because Of You

The theme tune to 'Brush Strokes'

Tabbed By mcnry mikin - 15/04/05
mcnrymikin@yahoo.co.uk

Intro:

	   G             A            D             Bm
E----2-5--------------------------2-0-------------------------------|
B--3-----3-------0-0-3-0--------------3-----------------------------|
G----------4-------------2------------------------------------------|
D-------------------------------------------------------------------|
A-------------------------------------------------------------------|
E-------------------------------------------------------------------|


	   G             A            D             A
E----2-5--------------------------0---------------------------------|
B--3-----3-------0-0-3-0----2--3------3-----------------------------|
G----------4-------------2------------------------------------------|
D-------------------------------------------------------------------|
A---------------------------------------------------0-0-------------|
E-------------------------------------------------------3-3-2-2-0-0-|


Verse 1:

D	   G                  D
Because Of You these things I do.
           G                D
Because of you.  Because of you.
                      G
A Ba ba ba because of you.
           D      A
Because of you oh oh


Chorus:

       D                G                D                G
Oh and you love nature, you love nature, you love nature, you love nature
D         G            A
You love, nature don't you?


Repeat Intro, but keep playing the D instead of the Bm the first time, and the D instead 
the A the second time.


Verse 2:
D	                G                    D
Anything you want me to do, baby i'll do for you.
           G                   D
Anything i can do, i'll do for you.
                       G
Anything, anything for you.
             D               A
I'll see you through,  oo oo oo.


Repeat Chorus


Bridge:
A			      G
And if you need some place to be,
                    D
you're alright with me
              G                       D      A
You want company, you're alright with me


Repeat Chorus

End:

G	A	D	D
G	A	D	Bm
G	A	D
Tap to rate this tab
# A B C D E F G H I J K L M N O P Q R S T U V W X Y Z